ISO-10303-21;
HEADER;
FILE_DESCRIPTION (( 'STEP AP214' ),
    '1' );
FILE_NAME ('1147008.stp',
    '2017-04-07T06:45:03',
    ( '' ),
    ( '' ),
    'SwSTEP 2.0',
    'SolidWorks 2016',
    '' );
FILE_SCHEMA (( 'AUTOMOTIVE_DESIGN' ));
ENDSEC;

DATA;
#1 = DIRECTION ( 'NONE',  ( -1.000000000000000000, 0.0000000000000000000, -4.713751511828835900E-017 ) ) ;
#2 = CARTESIAN_POINT ( 'NONE',  ( -7.025712500026611600, 4.000000000000000000, -5.249999999999992000 ) ) ;
#3 = LINE ( 'NONE', #162, #44 ) ;
#4 = DIRECTION ( 'NONE',  ( -0.0000000000000000000, -1.000000000000000000, -0.0000000000000000000 ) ) ;
#5 = CARTESIAN_POINT ( 'NONE',  ( 0.0000000000000000000, -5.510910596163093900E-017, -0.0000000000000000000 ) ) ;
#6 = LINE ( 'NONE', #33, #239 ) ;
#7 = DIRECTION ( 'NONE',  ( -0.0000000000000000000, -1.000000000000000000, -0.0000000000000000000 ) ) ;
#8 = PRODUCT_DEFINITION ( 'UNKNOWN', '', #21, #81 ) ;
#9 = VERTEX_POINT ( 'NONE', #92 ) ;
#10 = EDGE_CURVE ( 'NONE', #80, #195, #212, .T. ) ;
#11 = VECTOR ( 'NONE', #190, 1000.000000000000000 ) ;
#12 = DIRECTION ( 'NONE',  ( -0.0000000000000000000, -1.000000000000000000, -0.0000000000000000000 ) ) ;
#13 = AXIS2_PLACEMENT_3D ( 'NONE', #235, #153, #118 ) ;
#14 =( GEOMETRIC_REPRESENTATION_CONTEXT ( 3 ) GLOBAL_UNCERTAINTY_ASSIGNED_CONTEXT ( ( #185 ) ) GLOBAL_UNIT_ASSIGNED_CONTEXT ( ( #126, #123, #259 ) ) REPRESENTATION_CONTEXT ( 'NONE', 'WORKASPACE' ) );
#15 = CARTESIAN_POINT ( 'NONE',  ( 7.025712500026568100, 0.0000000000000000000, 5.250000000000008900 ) ) ;
#16 = CARTESIAN_POINT ( 'NONE',  ( -11.37495490494416100, 0.0000000000000000000, 5.250000000000008000 ) ) ;
#17 = ORIENTED_EDGE ( 'NONE', *, *, #10, .F. ) ;
#18 = CARTESIAN_POINT ( 'NONE',  ( -11.37495490494416100, 4.000000000000000000, 5.250000000000008000 ) ) ;
#19 = ORIENTED_EDGE ( 'NONE', *, *, #107, .F. ) ;
#20 = LINE ( 'NONE', #91, #124 ) ;
#21 = PRODUCT_DEFINITION_FORMATION_WITH_SPECIFIED_SOURCE ( 'ANY', '', #42, .NOT_KNOWN. ) ;
#22 = ORIENTED_EDGE ( 'NONE', *, *, #24, .T. ) ;
#23 = ORIENTED_EDGE ( 'NONE', *, *, #260, .F. ) ;
#24 = EDGE_CURVE ( 'NONE', #219, #133, #3, .T. ) ;
#25 = PRODUCT_RELATED_PRODUCT_CATEGORY ( 'part', '', ( #42 ) ) ;
#26 = ORIENTED_EDGE ( 'NONE', *, *, #149, .T. ) ;
#27 = CYLINDRICAL_SURFACE ( 'NONE', #273, 1.649999999999999200 ) ;
#28 = ORIENTED_EDGE ( 'NONE', *, *, #270, .F. ) ;
#29 = APPLICATION_PROTOCOL_DEFINITION ( 'draft international standard', 'automotive_design', 1998, #230 ) ;
#30 = CARTESIAN_POINT ( 'NONE',  ( 11.37495490494412600, 4.000000000000000000, -5.250000000000000900 ) ) ;
#31 = CARTESIAN_POINT ( 'NONE',  ( 7.025712500026568100, 4.000000000000000000, 5.250000000000008900 ) ) ;
#32 = DIRECTION ( 'NONE',  ( 1.000000000000000000, 0.0000000000000000000, -5.185126663011717600E-016 ) ) ;
#33 = CARTESIAN_POINT ( 'NONE',  ( -11.37495490494416100, 4.000000000000000000, 5.250000000000008000 ) ) ;
#34 = EDGE_CURVE ( 'NONE', #183, #219, #224, .T. ) ;
#35 = LINE ( 'NONE', #15, #108 ) ;
#36 = EDGE_LOOP ( 'NONE', ( #89, #158, #104, #252 ) ) ;
#37 = DIRECTION ( 'NONE',  ( 1.000000000000000000, 0.0000000000000000000, 0.0000000000000000000 ) ) ;
#38 = LINE ( 'NONE', #258, #94 ) ;
#39 = AXIS2_PLACEMENT_3D ( 'NONE', #136, #161, #186 ) ;
#40 = MECHANICAL_DESIGN_GEOMETRIC_PRESENTATION_REPRESENTATION (  '', ( #141 ), #14 ) ;
#41 = ORIENTED_EDGE ( 'NONE', *, *, #268, .T. ) ;
#42 = PRODUCT ( '1147008', '1147008', '', ( #221 ) ) ;
#43 = PRODUCT_DEFINITION_SHAPE ( 'NONE', 'NONE',  #8 ) ;
#44 = VECTOR ( 'NONE', #214, 1000.000000000000100 ) ;
#45 = UNCERTAINTY_MEASURE_WITH_UNIT (LENGTH_MEASURE( 1.000000000000000100E-005 ), #169, 'distance_accuracy_value', 'NONE');
#46 = DIRECTION ( 'NONE',  ( 0.0000000000000000000, 0.0000000000000000000, -1.000000000000000000 ) ) ;
#47 = EDGE_CURVE ( 'NONE', #266, #56, #207, .T. ) ;
#48 = EDGE_LOOP ( 'NONE', ( #101, #138 ) ) ;
#49 = ORIENTED_EDGE ( 'NONE', *, *, #47, .T. ) ;
#50 = CIRCLE ( 'NONE', #253, 1.649999999999999500 ) ;
#51 = ORIENTED_EDGE ( 'NONE', *, *, #34, .F. ) ;
#52 = CARTESIAN_POINT ( 'NONE',  ( 0.0000000000000000000, -5.510910596163093900E-017, -0.0000000000000000000 ) ) ;
#53 = CARTESIAN_POINT ( 'NONE',  ( 11.37495490494412600, 0.0000000000000000000, -5.250000000000000900 ) ) ;
#54 = EDGE_CURVE ( 'NONE', #56, #266, #271, .T. ) ;
#55 = LINE ( 'NONE', #16, #189 ) ;
#56 = VERTEX_POINT ( 'NONE', #122 ) ;
#57 = AXIS2_PLACEMENT_3D ( 'NONE', #31, #78, #159 ) ;
#58 = ORIENTED_EDGE ( 'NONE', *, *, #85, .T. ) ;
#59 = VERTEX_POINT ( 'NONE', #179 ) ;
#60 =( GEOMETRIC_REPRESENTATION_CONTEXT ( 3 ) GLOBAL_UNCERTAINTY_ASSIGNED_CONTEXT ( ( #45 ) ) GLOBAL_UNIT_ASSIGNED_CONTEXT ( ( #169, #243, #272 ) ) REPRESENTATION_CONTEXT ( 'NONE', 'WORKASPACE' ) );
#61 = AXIS2_PLACEMENT_3D ( 'NONE', #205, #220, #117 ) ;
#62 = ORIENTED_EDGE ( 'NONE', *, *, #82, .F. ) ;
#63 = EDGE_LOOP ( 'NONE', ( #240, #23, #28, #19 ) ) ;
#64 = UNCERTAINTY_MEASURE_WITH_UNIT (LENGTH_MEASURE( 1.000000000000000100E-005 ), #242, 'distance_accuracy_value', 'NONE');
#65 = SHAPE_DEFINITION_REPRESENTATION ( #43, #164 ) ;
#66 = CARTESIAN_POINT ( 'NONE',  ( -7.025712500026611600, 4.000000000000000000, -5.249999999999992000 ) ) ;
#67 = ORIENTED_EDGE ( 'NONE', *, *, #54, .T. ) ;
#68 = SURFACE_STYLE_FILL_AREA ( #264 ) ;
#69 = LINE ( 'NONE', #30, #106 ) ;
#70 = VECTOR ( 'NONE', #148, 1000.000000000000000 ) ;
#71 = PLANE ( 'NONE',  #13 ) ;
#72 = FACE_OUTER_BOUND ( 'NONE', #168, .T. ) ;
#73 = DIRECTION ( 'NONE',  ( 1.000000000000000000, 0.0000000000000000000, 4.713751511828835900E-017 ) ) ;
#74 = DIRECTION ( 'NONE',  ( -0.0000000000000000000, -1.000000000000000000, -0.0000000000000000000 ) ) ;
#75 = AXIS2_PLACEMENT_3D ( 'NONE', #233, #7, #144 ) ;
#76 = ORIENTED_EDGE ( 'NONE', *, *, #10, .T. ) ;
#77 = SURFACE_STYLE_USAGE ( .BOTH. , #222 ) ;
#78 = DIRECTION ( 'NONE',  ( -0.9238795325112850700, 0.0000000000000000000, -0.3826834323650940000 ) ) ;
#79 = DIRECTION ( 'NONE',  ( 0.3826834323650940000, 0.0000000000000000000, -0.9238795325112849600 ) ) ;
#80 = VERTEX_POINT ( 'NONE', #66 ) ;
#81 = PRODUCT_DEFINITION_CONTEXT ( 'detailed design', #230, 'design' ) ;
#82 = EDGE_CURVE ( 'NONE', #133, #80, #116, .T. ) ;
#83 = EDGE_LOOP ( 'NONE', ( #203, #17, #62, #26 ) ) ;
#84 = DIRECTION ( 'NONE',  ( 0.0000000000000000000, 0.0000000000000000000, -1.000000000000000000 ) ) ;
#85 = EDGE_CURVE ( 'NONE', #80, #183, #6, .T. ) ;
#86 = ORIENTED_EDGE ( 'NONE', *, *, #149, .F. ) ;
#87 = CARTESIAN_POINT ( 'NONE',  ( 11.37495490494412600, 4.000000000000000000, -5.250000000000000900 ) ) ;
#88 = FACE_OUTER_BOUND ( 'NONE', #36, .T. ) ;
#89 = ORIENTED_EDGE ( 'NONE', *, *, #109, .F. ) ;
#90 = PRESENTATION_LAYER_ASSIGNMENT (  '', '', ( #141 ) ) ;
#91 = CARTESIAN_POINT ( 'NONE',  ( -11.37495490494416100, 4.000000000000000000, 5.250000000000008000 ) ) ;
#92 = CARTESIAN_POINT ( 'NONE',  ( 2.020667218593132500E-016, -5.510910596163093900E-017, 1.649999999999999700 ) ) ;
#93 = AXIS2_PLACEMENT_3D ( 'NONE', #5, #155, #99 ) ;
#94 = VECTOR ( 'NONE', #256, 1000.000000000000200 ) ;
#95 = EDGE_CURVE ( 'NONE', #59, #9, #225, .T. ) ;
#96 = EDGE_LOOP ( 'NONE', ( #198, #105, #115, #76 ) ) ;
#97 = PLANE ( 'NONE',  #57 ) ;
#98 = STYLED_ITEM ( 'NONE', ( #249 ), #229 ) ;
#99 = DIRECTION ( 'NONE',  ( 0.0000000000000000000, 0.0000000000000000000, -1.000000000000000000 ) ) ;
#100 = CARTESIAN_POINT ( 'NONE',  ( 0.0000000000000000000, 4.000000000000000000, 0.0000000000000000000 ) ) ;
#101 = ORIENTED_EDGE ( 'NONE', *, *, #95, .F. ) ;
#102 = PLANE ( 'NONE',  #206 ) ;
#103 = CARTESIAN_POINT ( 'NONE',  ( 0.0000000000000000000, 0.0000000000000000000, -0.0000000000000000000 ) ) ;
#104 = ORIENTED_EDGE ( 'NONE', *, *, #137, .T. ) ;
#105 = ORIENTED_EDGE ( 'NONE', *, *, #146, .F. ) ;
#106 = VECTOR ( 'NONE', #12, 1000.000000000000000 ) ;
#107 = EDGE_CURVE ( 'NONE', #208, #263, #55, .T. ) ;
#108 = VECTOR ( 'NONE', #79, 1000.000000000000100 ) ;
#109 = EDGE_CURVE ( 'NONE', #266, #9, #267, .T. ) ;
#110 = ORIENTED_EDGE ( 'NONE', *, *, #137, .F. ) ;
#111 = ORIENTED_EDGE ( 'NONE', *, *, #146, .T. ) ;
#112 = FACE_OUTER_BOUND ( 'NONE', #172, .T. ) ;
#113 =( NAMED_UNIT ( * ) PLANE_ANGLE_UNIT ( ) SI_UNIT ( $, .RADIAN. ) );
#114 = PRESENTATION_LAYER_ASSIGNMENT (  '', '', ( #98 ) ) ;
#115 = ORIENTED_EDGE ( 'NONE', *, *, #85, .F. ) ;
#116 = LINE ( 'NONE', #2, #215 ) ;
#117 = DIRECTION ( 'NONE',  ( 0.0000000000000000000, -0.0000000000000000000, -1.000000000000000000 ) ) ;
#118 = DIRECTION ( 'NONE',  ( 0.0000000000000000000, -0.0000000000000000000, -1.000000000000000000 ) ) ;
#119 = FACE_OUTER_BOUND ( 'NONE', #63, .T. ) ;
#120 = PLANE ( 'NONE',  #61 ) ;
#121 = MECHANICAL_DESIGN_GEOMETRIC_PRESENTATION_REPRESENTATION (  '', ( #98 ), #60 ) ;
#122 = CARTESIAN_POINT ( 'NONE',  ( 0.0000000000000000000, 4.000000000000000000, -1.649999999999999000 ) ) ;
#123 =( NAMED_UNIT ( * ) PLANE_ANGLE_UNIT ( ) SI_UNIT ( $, .RADIAN. ) );
#124 = VECTOR ( 'NONE', #130, 1000.000000000000000 ) ;
#125 = FACE_OUTER_BOUND ( 'NONE', #96, .T. ) ;
#126 =( LENGTH_UNIT ( ) NAMED_UNIT ( * ) SI_UNIT ( .MILLI., .METRE. ) );
#127 = DIRECTION ( 'NONE',  ( -0.0000000000000000000, -1.000000000000000000, -0.0000000000000000000 ) ) ;
#128 = AXIS2_PLACEMENT_3D ( 'NONE', #100, #165, #46 ) ;
#129 = PLANE ( 'NONE',  #39 ) ;
#130 = DIRECTION ( 'NONE',  ( -0.0000000000000000000, -1.000000000000000000, -0.0000000000000000000 ) ) ;
#131 = CARTESIAN_POINT ( 'NONE',  ( -11.37495490494416100, 0.0000000000000000000, 5.250000000000008000 ) ) ;
#132 = CARTESIAN_POINT ( 'NONE',  ( 7.025712500026568100, 4.000000000000000000, 5.250000000000008900 ) ) ;
#133 = VERTEX_POINT ( 'NONE', #87 ) ;
#134 = FACE_OUTER_BOUND ( 'NONE', #83, .T. ) ;
#135 = CARTESIAN_POINT ( 'NONE',  ( -7.025712500026611600, 4.000000000000000000, -5.249999999999992000 ) ) ;
#136 = CARTESIAN_POINT ( 'NONE',  ( -11.37495490494416100, 4.000000000000000000, 5.250000000000008000 ) ) ;
#137 = EDGE_CURVE ( 'NONE', #56, #59, #241, .T. ) ;
#138 = ORIENTED_EDGE ( 'NONE', *, *, #187, .F. ) ;
#139 = CARTESIAN_POINT ( 'NONE',  ( 7.025712500026568100, 0.0000000000000000000, 5.250000000000008900 ) ) ;
#140 = VERTEX_POINT ( 'NONE', #53 ) ;
#141 = STYLED_ITEM ( 'NONE', ( #261 ), #164 ) ;
#142 = CARTESIAN_POINT ( 'NONE',  ( -11.37495490494416100, 4.000000000000000000, 5.250000000000008000 ) ) ;
#143 = DIRECTION ( 'NONE',  ( 5.185126663011717600E-016, -0.0000000000000000000, 1.000000000000000000 ) ) ;
#144 = DIRECTION ( 'NONE',  ( 0.0000000000000000000, 0.0000000000000000000, -1.000000000000000000 ) ) ;
#145 = FILL_AREA_STYLE ('',( #247 ) ) ;
#146 = EDGE_CURVE ( 'NONE', #183, #208, #20, .T. ) ;
#147 = VECTOR ( 'NONE', #238, 1000.000000000000000 ) ;
#148 = DIRECTION ( 'NONE',  ( -0.0000000000000000000, -1.000000000000000000, -0.0000000000000000000 ) ) ;
#149 = EDGE_CURVE ( 'NONE', #133, #140, #69, .T. ) ;
#150 = ORIENTED_EDGE ( 'NONE', *, *, #270, .T. ) ;
#151 = EDGE_LOOP ( 'NONE', ( #67, #49 ) ) ;
#152 = EDGE_CURVE ( 'NONE', #195, #208, #38, .T. ) ;
#153 = DIRECTION ( 'NONE',  ( 0.0000000000000000000, -1.000000000000000000, 0.0000000000000000000 ) ) ;
#154 = FILL_AREA_STYLE_COLOUR ( '', #196 ) ;
#155 = DIRECTION ( 'NONE',  ( -0.0000000000000000000, -1.000000000000000000, -0.0000000000000000000 ) ) ;
#156 = DIRECTION ( 'NONE',  ( 0.0000000000000000000, 0.0000000000000000000, -1.000000000000000000 ) ) ;
#157 =( NAMED_UNIT ( * ) SI_UNIT ( $, .STERADIAN. ) SOLID_ANGLE_UNIT ( ) );
#158 = ORIENTED_EDGE ( 'NONE', *, *, #54, .F. ) ;
#159 = DIRECTION ( 'NONE',  ( -0.3826834323650939500, 0.0000000000000000000, 0.9238795325112849600 ) ) ;
#160 = LINE ( 'NONE', #182, #11 ) ;
#161 = DIRECTION ( 'NONE',  ( 0.9238795325112851800, -0.0000000000000000000, 0.3826834323650936700 ) ) ;
#162 = CARTESIAN_POINT ( 'NONE',  ( 7.025712500026568100, 4.000000000000000000, 5.250000000000008900 ) ) ;
#163 = CARTESIAN_POINT ( 'NONE',  ( 0.0000000000000000000, 0.0000000000000000000, -0.0000000000000000000 ) ) ;
#164 = ADVANCED_BREP_SHAPE_REPRESENTATION ( '1147008', ( #229, #248 ), #232 ) ;
#165 = DIRECTION ( 'NONE',  ( -0.0000000000000000000, -1.000000000000000000, -0.0000000000000000000 ) ) ;
#166 = DIRECTION ( 'NONE',  ( -0.0000000000000000000, -1.000000000000000000, -0.0000000000000000000 ) ) ;
#167 = VECTOR ( 'NONE', #127, 1000.000000000000000 ) ;
#168 = EDGE_LOOP ( 'NONE', ( #202, #199, #231, #110 ) ) ;
#169 =( LENGTH_UNIT ( ) NAMED_UNIT ( * ) SI_UNIT ( .MILLI., .METRE. ) );
#170 = ORIENTED_EDGE ( 'NONE', *, *, #107, .T. ) ;
#171 = ORIENTED_EDGE ( 'NONE', *, *, #82, .T. ) ;
#172 = EDGE_LOOP ( 'NONE', ( #150, #86, #236, #41 ) ) ;
#173 = ADVANCED_FACE ( 'NONE', ( #228, #218 ), #71, .F. ) ;
#174 = ADVANCED_FACE ( 'NONE', ( #88 ), #27, .F. ) ;
#175 = ADVANCED_FACE ( 'NONE', ( #72 ), #234, .F. ) ;
#176 = ADVANCED_FACE ( 'NONE', ( #134 ), #102, .F. ) ;
#177 = ADVANCED_FACE ( 'NONE', ( #204, #119 ), #120, .T. ) ;
#178 = ADVANCED_FACE ( 'NONE', ( #112 ), #97, .F. ) ;
#179 = CARTESIAN_POINT ( 'NONE',  ( 0.0000000000000000000, -5.510910596163093900E-017, -1.649999999999999500 ) ) ;
#180 = ADVANCED_FACE ( 'NONE', ( #125 ), #129, .F. ) ;
#181 = ADVANCED_FACE ( 'NONE', ( #184 ), #194, .F. ) ;
#182 = CARTESIAN_POINT ( 'NONE',  ( -7.025712500026611600, 0.0000000000000000000, -5.249999999999992000 ) ) ;
#183 = VERTEX_POINT ( 'NONE', #18 ) ;
#184 = FACE_OUTER_BOUND ( 'NONE', #251, .T. ) ;
#185 = UNCERTAINTY_MEASURE_WITH_UNIT (LENGTH_MEASURE( 1.000000000000000100E-005 ), #126, 'distance_accuracy_value', 'NONE');
#186 = DIRECTION ( 'NONE',  ( 0.3826834323650936100, 0.0000000000000000000, -0.9238795325112850700 ) ) ;
#187 = EDGE_CURVE ( 'NONE', #9, #59, #50, .T. ) ;
#188 = APPLICATION_PROTOCOL_DEFINITION ( 'draft international standard', 'automotive_design', 1998, #246 ) ;
#189 = VECTOR ( 'NONE', #73, 1000.000000000000000 ) ;
#190 = DIRECTION ( 'NONE',  ( -1.000000000000000000, -0.0000000000000000000, 5.185126663011717600E-016 ) ) ;
#191 = DIRECTION ( 'NONE',  ( -0.0000000000000000000, -1.000000000000000000, -0.0000000000000000000 ) ) ;
#192 = AXIS2_PLACEMENT_3D ( 'NONE', #103, #4, #156 ) ;
#193 = SURFACE_STYLE_FILL_AREA ( #145 ) ;
#194 = PLANE ( 'NONE',  #226 ) ;
#195 = VERTEX_POINT ( 'NONE', #210 ) ;
#196 = COLOUR_RGB ( '',0.5294117647058823600, 0.5490196078431373000, 0.5490196078431373000 ) ;
#197 = CARTESIAN_POINT ( 'NONE',  ( -11.37495490494416100, 4.000000000000000000, 5.250000000000008000 ) ) ;
#198 = ORIENTED_EDGE ( 'NONE', *, *, #152, .T. ) ;
#199 = ORIENTED_EDGE ( 'NONE', *, *, #109, .T. ) ;
#200 = CARTESIAN_POINT ( 'NONE',  ( -7.025712500026611600, 4.000000000000000000, -5.249999999999992000 ) ) ;
#201 = CARTESIAN_POINT ( 'NONE',  ( 0.0000000000000000000, 0.0000000000000000000, 0.0000000000000000000 ) ) ;
#202 = ORIENTED_EDGE ( 'NONE', *, *, #47, .F. ) ;
#203 = ORIENTED_EDGE ( 'NONE', *, *, #260, .T. ) ;
#204 = FACE_BOUND ( 'NONE', #48, .T. ) ;
#205 = CARTESIAN_POINT ( 'NONE',  ( 0.0000000000000000000, 0.0000000000000000000, 0.0000000000000000000 ) ) ;
#206 = AXIS2_PLACEMENT_3D ( 'NONE', #135, #143, #32 ) ;
#207 = CIRCLE ( 'NONE', #128, 1.649999999999999000 ) ;
#208 = VERTEX_POINT ( 'NONE', #131 ) ;
#209 = CLOSED_SHELL ( 'NONE', ( #175, #180, #181, #178, #176, #173, #177, #174 ) ) ;
#210 = CARTESIAN_POINT ( 'NONE',  ( -7.025712500026611600, 0.0000000000000000000, -5.249999999999992000 ) ) ;
#211 = SURFACE_SIDE_STYLE ('',( #68 ) ) ;
#212 = LINE ( 'NONE', #200, #167 ) ;
#213 = DIRECTION ( 'NONE',  ( -1.000000000000000000, -0.0000000000000000000, 5.185126663011717600E-016 ) ) ;
#214 = DIRECTION ( 'NONE',  ( 0.3826834323650940000, 0.0000000000000000000, -0.9238795325112849600 ) ) ;
#215 = VECTOR ( 'NONE', #213, 1000.000000000000000 ) ;
#216 = VECTOR ( 'NONE', #237, 1000.000000000000000 ) ;
#217 = CARTESIAN_POINT ( 'NONE',  ( 0.0000000000000000000, 0.0000000000000000000, -1.649999999999999200 ) ) ;
#218 = FACE_OUTER_BOUND ( 'NONE', #257, .T. ) ;
#219 = VERTEX_POINT ( 'NONE', #132 ) ;
#220 = DIRECTION ( 'NONE',  ( 0.0000000000000000000, -1.000000000000000000, 0.0000000000000000000 ) ) ;
#221 = PRODUCT_CONTEXT ( 'NONE', #246, 'mechanical' ) ;
#222 = SURFACE_SIDE_STYLE ('',( #193 ) ) ;
#223 = VECTOR ( 'NONE', #74, 1000.000000000000000 ) ;
#224 = LINE ( 'NONE', #197, #147 ) ;
#225 = CIRCLE ( 'NONE', #93, 1.649999999999999500 ) ;
#226 = AXIS2_PLACEMENT_3D ( 'NONE', #142, #227, #1 ) ;
#227 = DIRECTION ( 'NONE',  ( 4.713751511828835900E-017, 0.0000000000000000000, -1.000000000000000000 ) ) ;
#228 = FACE_BOUND ( 'NONE', #151, .T. ) ;
#229 = MANIFOLD_SOLID_BREP ( ' Gewindebohrung1', #209 ) ;
#230 = APPLICATION_CONTEXT ( 'automotive_design' ) ;
#231 = ORIENTED_EDGE ( 'NONE', *, *, #187, .T. ) ;
#232 =( GEOMETRIC_REPRESENTATION_CONTEXT ( 3 ) GLOBAL_UNCERTAINTY_ASSIGNED_CONTEXT ( ( #64 ) ) GLOBAL_UNIT_ASSIGNED_CONTEXT ( ( #242, #113, #157 ) ) REPRESENTATION_CONTEXT ( 'NONE', 'WORKASPACE' ) );
#233 = CARTESIAN_POINT ( 'NONE',  ( 0.0000000000000000000, 4.000000000000000000, 0.0000000000000000000 ) ) ;
#234 = CYLINDRICAL_SURFACE ( 'NONE', #192, 1.649999999999999200 ) ;
#235 = CARTESIAN_POINT ( 'NONE',  ( 0.0000000000000000000, 4.000000000000000000, 0.0000000000000000000 ) ) ;
#236 = ORIENTED_EDGE ( 'NONE', *, *, #24, .F. ) ;
#237 = DIRECTION ( 'NONE',  ( -0.0000000000000000000, -1.000000000000000000, -0.0000000000000000000 ) ) ;
#238 = DIRECTION ( 'NONE',  ( 1.000000000000000000, 0.0000000000000000000, 4.713751511828835900E-017 ) ) ;
#239 = VECTOR ( 'NONE', #262, 1000.000000000000200 ) ;
#240 = ORIENTED_EDGE ( 'NONE', *, *, #152, .F. ) ;
#241 = LINE ( 'NONE', #217, #216 ) ;
#242 =( LENGTH_UNIT ( ) NAMED_UNIT ( * ) SI_UNIT ( .MILLI., .METRE. ) );
#243 =( NAMED_UNIT ( * ) PLANE_ANGLE_UNIT ( ) SI_UNIT ( $, .RADIAN. ) );
#244 = DIRECTION ( 'NONE',  ( 0.0000000000000000000, 0.0000000000000000000, 1.000000000000000000 ) ) ;
#245 = CARTESIAN_POINT ( 'NONE',  ( 7.025712500026568100, 4.000000000000000000, 5.250000000000008900 ) ) ;
#246 = APPLICATION_CONTEXT ( 'automotive_design' ) ;
#247 = FILL_AREA_STYLE_COLOUR ( '', #269 ) ;
#248 = AXIS2_PLACEMENT_3D ( 'NONE', #201, #244, #37 ) ;
#249 = PRESENTATION_STYLE_ASSIGNMENT (( #254 ) ) ;
#250 = ORIENTED_EDGE ( 'NONE', *, *, #268, .F. ) ;
#251 = EDGE_LOOP ( 'NONE', ( #170, #250, #51, #111 ) ) ;
#252 = ORIENTED_EDGE ( 'NONE', *, *, #95, .T. ) ;
#253 = AXIS2_PLACEMENT_3D ( 'NONE', #52, #191, #84 ) ;
#254 = SURFACE_STYLE_USAGE ( .BOTH. , #211 ) ;
#255 = CARTESIAN_POINT ( 'NONE',  ( 2.020667218593132000E-016, 0.0000000000000000000, 1.649999999999999200 ) ) ;
#256 = DIRECTION ( 'NONE',  ( -0.3826834323650936700, -0.0000000000000000000, 0.9238795325112850700 ) ) ;
#257 = EDGE_LOOP ( 'NONE', ( #58, #276, #22, #171 ) ) ;
#258 = CARTESIAN_POINT ( 'NONE',  ( -11.37495490494416100, 0.0000000000000000000, 5.250000000000008000 ) ) ;
#259 =( NAMED_UNIT ( * ) SI_UNIT ( $, .STERADIAN. ) SOLID_ANGLE_UNIT ( ) );
#260 = EDGE_CURVE ( 'NONE', #140, #195, #160, .T. ) ;
#261 = PRESENTATION_STYLE_ASSIGNMENT (( #77 ) ) ;
#262 = DIRECTION ( 'NONE',  ( -0.3826834323650936700, -0.0000000000000000000, 0.9238795325112850700 ) ) ;
#263 = VERTEX_POINT ( 'NONE', #139 ) ;
#264 = FILL_AREA_STYLE ('',( #154 ) ) ;
#265 = DIRECTION ( 'NONE',  ( 0.0000000000000000000, 0.0000000000000000000, -1.000000000000000000 ) ) ;
#266 = VERTEX_POINT ( 'NONE', #274 ) ;
#267 = LINE ( 'NONE', #255, #70 ) ;
#268 = EDGE_CURVE ( 'NONE', #219, #263, #275, .T. ) ;
#269 = COLOUR_RGB ( '',0.5294117647058823600, 0.5490196078431373000, 0.5490196078431373000 ) ;
#270 = EDGE_CURVE ( 'NONE', #263, #140, #35, .T. ) ;
#271 = CIRCLE ( 'NONE', #75, 1.649999999999999000 ) ;
#272 =( NAMED_UNIT ( * ) SI_UNIT ( $, .STERADIAN. ) SOLID_ANGLE_UNIT ( ) );
#273 = AXIS2_PLACEMENT_3D ( 'NONE', #163, #166, #265 ) ;
#274 = CARTESIAN_POINT ( 'NONE',  ( 2.020667218593132000E-016, 4.000000000000000000, 1.649999999999999000 ) ) ;
#275 = LINE ( 'NONE', #245, #223 ) ;
#276 = ORIENTED_EDGE ( 'NONE', *, *, #34, .T. ) ;
ENDSEC;
END-ISO-10303-21;
