ISO-10303-21;
HEADER;
FILE_DESCRIPTION((''),'2;1');
FILE_NAME('2030016','2012-08-14T',('AndreasKeweloh'),(''),
'PRO/ENGINEER BY PARAMETRIC TECHNOLOGY CORPORATION, 2012130',
'PRO/ENGINEER BY PARAMETRIC TECHNOLOGY CORPORATION, 2012130','');
FILE_SCHEMA(('CONFIG_CONTROL_DESIGN'));
ENDSEC;
DATA;
#2=DIRECTION('',(-2.588190451025E-1,9.659258262891E-1,0.E0));
#3=VECTOR('',#2,2.277607596902E0);
#4=CARTESIAN_POINT('',(2.529474411167E1,-1.894780628694E-14,0.E0));
#5=LINE('',#4,#3);
#6=CARTESIAN_POINT('',(1.25E1,2.2E0,0.E0));
#7=DIRECTION('',(0.E0,-1.E0,0.E0));
#8=DIRECTION('',(1.E0,0.E0,0.E0));
#9=AXIS2_PLACEMENT_3D('',#6,#7,#8);
#11=DIRECTION('',(-2.588190451025E-1,-9.659258262891E-1,0.E0));
#12=VECTOR('',#11,2.277607596902E0);
#13=CARTESIAN_POINT('',(2.947441116743E-1,2.2E0,0.E0));
#14=LINE('',#13,#12);
#15=CARTESIAN_POINT('',(1.25E1,2.2E0,0.E0));
#16=DIRECTION('',(0.E0,-1.E0,0.E0));
#17=DIRECTION('',(-1.E0,0.E0,0.E0));
#18=AXIS2_PLACEMENT_3D('',#15,#16,#17);
#20=CARTESIAN_POINT('',(1.25E1,2.2E0,0.E0));
#21=DIRECTION('',(0.E0,1.E0,0.E0));
#22=DIRECTION('',(-1.E0,0.E0,0.E0));
#23=AXIS2_PLACEMENT_3D('',#20,#21,#22);
#25=CARTESIAN_POINT('',(1.25E1,2.2E0,0.E0));
#26=DIRECTION('',(0.E0,1.E0,0.E0));
#27=DIRECTION('',(1.E0,0.E0,0.E0));
#28=AXIS2_PLACEMENT_3D('',#25,#26,#27);
#30=DIRECTION('',(-8.715574274764E-2,9.961946980917E-1,0.E0));
#31=VECTOR('',#30,1.104201821298E0);
#32=CARTESIAN_POINT('',(2.815E1,1.1E0,0.E0));
#33=LINE('',#32,#31);
#34=DIRECTION('',(8.715574274766E-2,-9.961946980917E-1,0.E0));
#35=VECTOR('',#34,1.104201821297E0);
#36=CARTESIAN_POINT('',(-3.15E0,1.1E0,0.E0));
#37=LINE('',#36,#35);
#38=CARTESIAN_POINT('',(1.25E1,1.1E0,0.E0));
#39=DIRECTION('',(0.E0,-1.E0,0.E0));
#40=DIRECTION('',(1.E0,0.E0,0.E0));
#41=AXIS2_PLACEMENT_3D('',#38,#39,#40);
#43=CARTESIAN_POINT('',(1.25E1,1.989519660128E-13,0.E0));
#44=DIRECTION('',(0.E0,-1.E0,0.E0));
#45=DIRECTION('',(1.E0,0.E0,0.E0));
#46=AXIS2_PLACEMENT_3D('',#43,#44,#45);
#48=CARTESIAN_POINT('',(1.25E1,1.989519660128E-13,0.E0));
#49=DIRECTION('',(0.E0,-1.E0,0.E0));
#50=DIRECTION('',(-1.E0,0.E0,0.E0));
#51=AXIS2_PLACEMENT_3D('',#48,#49,#50);
#53=CARTESIAN_POINT('',(1.25E1,-4.263256414561E-14,0.E0));
#54=DIRECTION('',(0.E0,1.E0,0.E0));
#55=DIRECTION('',(-1.E0,0.E0,0.E0));
#56=AXIS2_PLACEMENT_3D('',#53,#54,#55);
#58=CARTESIAN_POINT('',(1.25E1,-4.263256414561E-14,0.E0));
#59=DIRECTION('',(0.E0,1.E0,0.E0));
#60=DIRECTION('',(1.E0,0.E0,0.E0));
#61=AXIS2_PLACEMENT_3D('',#58,#59,#60);
#63=DIRECTION('',(-8.715574274766E-2,-9.961946980917E-1,0.E0));
#64=VECTOR('',#63,1.104201821297E0);
#65=CARTESIAN_POINT('',(2.815E1,1.1E0,0.E0));
#66=LINE('',#65,#64);
#67=CARTESIAN_POINT('',(1.25E1,1.1E0,0.E0));
#68=DIRECTION('',(0.E0,-1.E0,0.E0));
#69=DIRECTION('',(-1.E0,0.E0,0.E0));
#70=AXIS2_PLACEMENT_3D('',#67,#68,#69);
#72=DIRECTION('',(8.715574274764E-2,9.961946980917E-1,0.E0));
#73=VECTOR('',#72,1.104201821298E0);
#74=CARTESIAN_POINT('',(-3.15E0,1.1E0,0.E0));
#75=LINE('',#74,#73);
#76=CARTESIAN_POINT('',(-2.947441116742E-1,-4.263256414561E-14,0.E0));
#77=CARTESIAN_POINT('',(2.529474411167E1,-4.263256414561E-14,0.E0));
#78=VERTEX_POINT('',#76);
#79=VERTEX_POINT('',#77);
#80=CARTESIAN_POINT('',(2.805376247012E1,2.2E0,0.E0));
#81=CARTESIAN_POINT('',(-3.053762470121E0,2.2E0,0.E0));
#82=VERTEX_POINT('',#80);
#83=VERTEX_POINT('',#81);
#84=CARTESIAN_POINT('',(-3.15E0,1.1E0,0.E0));
#85=VERTEX_POINT('',#84);
#86=CARTESIAN_POINT('',(2.815E1,1.1E0,0.E0));
#87=VERTEX_POINT('',#86);
#88=CARTESIAN_POINT('',(-3.053762470121E0,1.136868377216E-13,0.E0));
#89=VERTEX_POINT('',#88);
#90=CARTESIAN_POINT('',(2.805376247012E1,1.136868377216E-13,0.E0));
#91=VERTEX_POINT('',#90);
#92=CARTESIAN_POINT('',(2.947441116743E-1,2.2E0,0.E0));
#93=CARTESIAN_POINT('',(2.470525588833E1,2.2E0,0.E0));
#94=VERTEX_POINT('',#92);
#95=VERTEX_POINT('',#93);
#96=CARTESIAN_POINT('',(1.25E1,1.1E0,0.E0));
#97=DIRECTION('',(0.E0,-1.E0,0.E0));
#98=DIRECTION('',(-1.E0,0.E0,0.E0));
#99=AXIS2_PLACEMENT_3D('',#96,#97,#98);
#100=CONICAL_SURFACE('',#99,1.25E1,1.5E1);
#102=ORIENTED_EDGE('',*,*,#101,.T.);
#104=ORIENTED_EDGE('',*,*,#103,.T.);
#106=ORIENTED_EDGE('',*,*,#105,.T.);
#108=ORIENTED_EDGE('',*,*,#107,.T.);
#109=EDGE_LOOP('',(#102,#104,#106,#108));
#110=FACE_OUTER_BOUND('',#109,.F.);
#111=ADVANCED_FACE('',(#110),#100,.F.);
#112=CARTESIAN_POINT('',(1.25E1,1.1E0,0.E0));
#113=DIRECTION('',(0.E0,-1.E0,0.E0));
#114=DIRECTION('',(-1.E0,0.E0,0.E0));
#115=AXIS2_PLACEMENT_3D('',#112,#113,#114);
#116=CONICAL_SURFACE('',#115,1.25E1,1.5E1);
#117=ORIENTED_EDGE('',*,*,#105,.F.);
#119=ORIENTED_EDGE('',*,*,#118,.T.);
#120=ORIENTED_EDGE('',*,*,#101,.F.);
#122=ORIENTED_EDGE('',*,*,#121,.T.);
#123=EDGE_LOOP('',(#117,#119,#120,#122));
#124=FACE_OUTER_BOUND('',#123,.F.);
#125=ADVANCED_FACE('',(#124),#116,.F.);
#126=CARTESIAN_POINT('',(2.667425329090E1,2.2E0,0.E0));
#127=DIRECTION('',(0.E0,1.E0,0.E0));
#128=DIRECTION('',(1.E0,0.E0,0.E0));
#129=AXIS2_PLACEMENT_3D('',#126,#127,#128);
#130=PLANE('',#129);
#132=ORIENTED_EDGE('',*,*,#131,.F.);
#134=ORIENTED_EDGE('',*,*,#133,.F.);
#135=EDGE_LOOP('',(#132,#134));
#136=FACE_OUTER_BOUND('',#135,.F.);
#137=ORIENTED_EDGE('',*,*,#118,.F.);
#138=ORIENTED_EDGE('',*,*,#103,.F.);
#139=EDGE_LOOP('',(#137,#138));
#140=FACE_BOUND('',#139,.F.);
#141=ADVANCED_FACE('',(#136,#140),#130,.T.);
#142=CARTESIAN_POINT('',(1.25E1,1.65E0,0.E0));
#143=DIRECTION('',(0.E0,-1.E0,0.E0));
#144=DIRECTION('',(-1.E0,0.E0,0.E0));
#145=AXIS2_PLACEMENT_3D('',#142,#143,#144);
#146=CONICAL_SURFACE('',#145,1.560188123506E1,5.E0);
#148=ORIENTED_EDGE('',*,*,#147,.T.);
#150=ORIENTED_EDGE('',*,*,#149,.T.);
#151=ORIENTED_EDGE('',*,*,#131,.T.);
#153=ORIENTED_EDGE('',*,*,#152,.F.);
#154=EDGE_LOOP('',(#148,#150,#151,#153));
#155=FACE_OUTER_BOUND('',#154,.F.);
#156=ADVANCED_FACE('',(#155),#146,.T.);
#157=CARTESIAN_POINT('',(1.25E1,5.5E-1,0.E0));
#158=DIRECTION('',(0.E0,1.E0,0.E0));
#159=DIRECTION('',(1.E0,0.E0,0.E0));
#160=AXIS2_PLACEMENT_3D('',#157,#158,#159);
#161=CONICAL_SURFACE('',#160,1.560188123506E1,5.E0);
#163=ORIENTED_EDGE('',*,*,#162,.T.);
#165=ORIENTED_EDGE('',*,*,#164,.F.);
#166=ORIENTED_EDGE('',*,*,#147,.F.);
#168=ORIENTED_EDGE('',*,*,#167,.T.);
#169=EDGE_LOOP('',(#163,#165,#166,#168));
#170=FACE_OUTER_BOUND('',#169,.F.);
#171=ADVANCED_FACE('',(#170),#161,.T.);
#172=CARTESIAN_POINT('',(2.667425329090E1,0.E0,0.E0));
#173=DIRECTION('',(0.E0,-1.E0,0.E0));
#174=DIRECTION('',(-1.E0,0.E0,0.E0));
#175=AXIS2_PLACEMENT_3D('',#172,#173,#174);
#176=PLANE('',#175);
#177=ORIENTED_EDGE('',*,*,#162,.F.);
#179=ORIENTED_EDGE('',*,*,#178,.F.);
#180=EDGE_LOOP('',(#177,#179));
#181=FACE_OUTER_BOUND('',#180,.F.);
#182=ORIENTED_EDGE('',*,*,#107,.F.);
#183=ORIENTED_EDGE('',*,*,#121,.F.);
#184=EDGE_LOOP('',(#182,#183));
#185=FACE_BOUND('',#184,.F.);
#186=ADVANCED_FACE('',(#181,#185),#176,.T.);
#187=CARTESIAN_POINT('',(1.25E1,5.5E-1,0.E0));
#188=DIRECTION('',(0.E0,1.E0,0.E0));
#189=DIRECTION('',(1.E0,0.E0,0.E0));
#190=AXIS2_PLACEMENT_3D('',#187,#188,#189);
#191=CONICAL_SURFACE('',#190,1.560188123506E1,5.E0);
#192=ORIENTED_EDGE('',*,*,#164,.T.);
#193=ORIENTED_EDGE('',*,*,#178,.T.);
#194=ORIENTED_EDGE('',*,*,#167,.F.);
#196=ORIENTED_EDGE('',*,*,#195,.F.);
#197=EDGE_LOOP('',(#192,#193,#194,#196));
#198=FACE_OUTER_BOUND('',#197,.F.);
#199=ADVANCED_FACE('',(#198),#191,.T.);
#200=CARTESIAN_POINT('',(1.25E1,1.65E0,0.E0));
#201=DIRECTION('',(0.E0,-1.E0,0.E0));
#202=DIRECTION('',(-1.E0,0.E0,0.E0));
#203=AXIS2_PLACEMENT_3D('',#200,#201,#202);
#204=CONICAL_SURFACE('',#203,1.560188123506E1,5.E0);
#205=ORIENTED_EDGE('',*,*,#149,.F.);
#206=ORIENTED_EDGE('',*,*,#195,.T.);
#207=ORIENTED_EDGE('',*,*,#152,.T.);
#208=ORIENTED_EDGE('',*,*,#133,.T.);
#209=EDGE_LOOP('',(#205,#206,#207,#208));
#210=FACE_OUTER_BOUND('',#209,.F.);
#211=ADVANCED_FACE('',(#210),#204,.T.);
#212=CLOSED_SHELL('',(#111,#125,#141,#156,#171,#186,#199,#211));
#213=MANIFOLD_SOLID_BREP('',#212);
#215=DIMENSIONAL_EXPONENTS(0.E0,0.E0,0.E0,0.E0,0.E0,0.E0,0.E0);
#217=PLANE_ANGLE_MEASURE_WITH_UNIT(PLANE_ANGLE_MEASURE(1.745329251994E-2),#216);
#218=(CONVERSION_BASED_UNIT('DEGREE',#217)NAMED_UNIT(*)PLANE_ANGLE_UNIT());
#220=UNCERTAINTY_MEASURE_WITH_UNIT(LENGTH_MEASURE(4.431774887720E-3),#214,
'closure',
'Maximum model space distance between geometric entities at asserted connectivities');
#221=(GEOMETRIC_REPRESENTATION_CONTEXT(3)GLOBAL_UNCERTAINTY_ASSIGNED_CONTEXT((
#220))GLOBAL_UNIT_ASSIGNED_CONTEXT((#214,#218,#219))REPRESENTATION_CONTEXT
('ID1','3'));
#223=APPLICATION_CONTEXT(
'CONFIGURATION CONTROLLED 3D DESIGNS OF MECHANICAL PARTS AND ASSEMBLIES');
#224=APPLICATION_PROTOCOL_DEFINITION('international standard',
'config_control_design',1994,#223);
#225=DESIGN_CONTEXT('',#223,'design');
#226=MECHANICAL_CONTEXT('',#223,'mechanical');
#227=PRODUCT('2030016','2030016','NOT SPECIFIED',(#226));
#228=PRODUCT_DEFINITION_FORMATION_WITH_SPECIFIED_SOURCE('1','LAST_VERSION',#227,
.MADE.);
#232=PRODUCT_CATEGORY('part','');
#233=PRODUCT_RELATED_PRODUCT_CATEGORY('detail','',(#227));
#234=PRODUCT_CATEGORY_RELATIONSHIP('','',#232,#233);
#235=SECURITY_CLASSIFICATION_LEVEL('unclassified');
#236=SECURITY_CLASSIFICATION('','',#235);
#237=CC_DESIGN_SECURITY_CLASSIFICATION(#236,(#228));
#238=APPROVAL_STATUS('approved');
#239=APPROVAL(#238,'');
#240=CC_DESIGN_APPROVAL(#239,(#236,#228,#229));
#241=CALENDAR_DATE(112,14,8);
#242=COORDINATED_UNIVERSAL_TIME_OFFSET(2,0,.AHEAD.);
#243=LOCAL_TIME(11,58,4.E0,#242);
#244=DATE_AND_TIME(#241,#243);
#245=APPROVAL_DATE_TIME(#244,#239);
#246=DATE_TIME_ROLE('creation_date');
#247=CC_DESIGN_DATE_AND_TIME_ASSIGNMENT(#244,#246,(#229));
#248=DATE_TIME_ROLE('classification_date');
#249=CC_DESIGN_DATE_AND_TIME_ASSIGNMENT(#244,#248,(#236));
#250=PERSON('UNSPECIFIED','UNSPECIFIED',$,$,$,$);
#251=ORGANIZATION('UNSPECIFIED','UNSPECIFIED','UNSPECIFIED');
#252=PERSON_AND_ORGANIZATION(#250,#251);
#253=APPROVAL_ROLE('approver');
#254=APPROVAL_PERSON_ORGANIZATION(#252,#239,#253);
#255=PERSON_AND_ORGANIZATION_ROLE('creator');
#256=CC_DESIGN_PERSON_AND_ORGANIZATION_ASSIGNMENT(#252,#255,(#228,#229));
#257=PERSON_AND_ORGANIZATION_ROLE('design_supplier');
#258=CC_DESIGN_PERSON_AND_ORGANIZATION_ASSIGNMENT(#252,#257,(#228));
#259=PERSON_AND_ORGANIZATION_ROLE('classification_officer');
#260=CC_DESIGN_PERSON_AND_ORGANIZATION_ASSIGNMENT(#252,#259,(#236));
#261=PERSON_AND_ORGANIZATION_ROLE('design_owner');
#262=CC_DESIGN_PERSON_AND_ORGANIZATION_ASSIGNMENT(#252,#261,(#227));
#10=CIRCLE('',#9,1.220525588833E1);
#19=CIRCLE('',#18,1.220525588833E1);
#24=CIRCLE('',#23,1.555376247012E1);
#29=CIRCLE('',#28,1.555376247012E1);
#42=CIRCLE('',#41,1.565E1);
#47=CIRCLE('',#46,1.555376247012E1);
#52=CIRCLE('',#51,1.555376247012E1);
#57=CIRCLE('',#56,1.279474411167E1);
#62=CIRCLE('',#61,1.279474411167E1);
#71=CIRCLE('',#70,1.565E1);
#101=EDGE_CURVE('',#79,#95,#5,.T.);
#103=EDGE_CURVE('',#95,#94,#10,.T.);
#105=EDGE_CURVE('',#94,#78,#14,.T.);
#107=EDGE_CURVE('',#78,#79,#57,.T.);
#118=EDGE_CURVE('',#94,#95,#19,.T.);
#121=EDGE_CURVE('',#79,#78,#62,.T.);
#131=EDGE_CURVE('',#83,#82,#24,.T.);
#133=EDGE_CURVE('',#82,#83,#29,.T.);
#147=EDGE_CURVE('',#87,#85,#42,.T.);
#149=EDGE_CURVE('',#85,#83,#75,.T.);
#152=EDGE_CURVE('',#87,#82,#33,.T.);
#162=EDGE_CURVE('',#91,#89,#47,.T.);
#164=EDGE_CURVE('',#85,#89,#37,.T.);
#167=EDGE_CURVE('',#87,#91,#66,.T.);
#178=EDGE_CURVE('',#89,#91,#52,.T.);
#195=EDGE_CURVE('',#85,#87,#71,.T.);
#214=(LENGTH_UNIT()NAMED_UNIT(*)SI_UNIT(.MILLI.,.METRE.));
#216=(NAMED_UNIT(*)PLANE_ANGLE_UNIT()SI_UNIT($,.RADIAN.));
#219=(NAMED_UNIT(*)SI_UNIT($,.STERADIAN.)SOLID_ANGLE_UNIT());
#222=ADVANCED_BREP_SHAPE_REPRESENTATION('',(#213),#221);
#229=PRODUCT_DEFINITION('design','',#228,#225);
#230=PRODUCT_DEFINITION_SHAPE('','SHAPE FOR 2030016.',#229);
#231=SHAPE_DEFINITION_REPRESENTATION(#230,#222);
ENDSEC;
END-ISO-10303-21;
