ISO-10303-21;
HEADER;
FILE_DESCRIPTION (( 'STEP AP214' ),
    '1' );
FILE_NAME ('2088835.stp',
    '2019-03-13T12:19:59',
    ( '' ),
    ( '' ),
    'SwSTEP 2.0',
    'SolidWorks 2018',
    '' );
FILE_SCHEMA (( 'AUTOMOTIVE_DESIGN' ));
ENDSEC;

DATA;
#1 = ADVANCED_BREP_SHAPE_REPRESENTATION ( '2088835', ( #120, #135 ), #141 ) ;
#2 = PRESENTATION_STYLE_ASSIGNMENT (( #64 ) ) ;
#3 = EDGE_CURVE ( 'NONE', #91, #82, #110, .T. ) ;
#4 = DIRECTION ( 'NONE',  ( 1.000000000000000000, 0.0000000000000000000, 1.224646799147353207E-16 ) ) ;
#5 = CARTESIAN_POINT ( 'NONE',  ( 1.194030629168669469E-15, 0.0000000000000000000, -9.750000000000000000 ) ) ;
#6 = PRESENTATION_LAYER_ASSIGNMENT (  '', '', ( #126 ) ) ;
#7 = DIRECTION ( 'NONE',  ( 1.224646799147351975E-16, 0.0000000000000000000, -1.000000000000000000 ) ) ;
#8 = ORIENTED_EDGE ( 'NONE', *, *, #3, .F. ) ;
#9 = CARTESIAN_POINT ( 'NONE',  ( 1.194030629168669469E-15, 0.0000000000000000000, -9.750000000000000000 ) ) ;
#10 = VERTEX_POINT ( 'NONE', #76 ) ;
#11 = DIRECTION ( 'NONE',  ( -0.0000000000000000000, 1.000000000000000000, -0.0000000000000000000 ) ) ;
#12 = DIRECTION ( 'NONE',  ( 1.224646799147351975E-16, 0.0000000000000000000, -1.000000000000000000 ) ) ;
#13 = DIRECTION ( 'NONE',  ( 1.000000000000000000, 0.0000000000000000000, 1.224646799147353207E-16 ) ) ;
#14 = DIRECTION ( 'NONE',  ( -0.0000000000000000000, 1.000000000000000000, -0.0000000000000000000 ) ) ;
#15 = CARTESIAN_POINT ( 'NONE',  ( 0.0000000000000000000, 0.0000000000000000000, 0.0000000000000000000 ) ) ;
#16 = CARTESIAN_POINT ( 'NONE',  ( 0.0000000000000000000, 0.0000000000000000000, 9.750000000000000000 ) ) ;
#17 = DIRECTION ( 'NONE',  ( 0.0000000000000000000, 0.0000000000000000000, 1.000000000000000000 ) ) ;
#18 = DIRECTION ( 'NONE',  ( -1.000000000000000000, 0.0000000000000000000, 0.0000000000000000000 ) ) ;
#19 = DIRECTION ( 'NONE',  ( 0.0000000000000000000, 0.0000000000000000000, 1.000000000000000000 ) ) ;
#20 = DIRECTION ( 'NONE',  ( 0.0000000000000000000, 0.0000000000000000000, 1.000000000000000000 ) ) ;
#21 = DIRECTION ( 'NONE',  ( -0.0000000000000000000, 1.000000000000000000, -0.0000000000000000000 ) ) ;
#22 = CARTESIAN_POINT ( 'NONE',  ( 0.0000000000000000000, -9.184850993605149670E-17, 9.000000000000000000 ) ) ;
#23 = CARTESIAN_POINT ( 'NONE',  ( 0.0000000000000000000, 0.0000000000000000000, 0.0000000000000000000 ) ) ;
#24 = CARTESIAN_POINT ( 'NONE',  ( 1.102182119232617714E-15, -9.184850993605149670E-17, -9.000000000000000000 ) ) ;
#25 = EDGE_CURVE ( 'NONE', #91, #95, #53, .T. ) ;
#26 = CARTESIAN_POINT ( 'NONE',  ( 0.0000000000000000000, -9.184850993605153368E-17, 0.0000000000000000000 ) ) ;
#27 = UNCERTAINTY_MEASURE_WITH_UNIT (LENGTH_MEASURE( 1.000000000000000082E-05 ), #38, 'distance_accuracy_value', 'NONE');
#28 = EDGE_CURVE ( 'NONE', #95, #91, #109, .T. ) ;
#29 = DIRECTION ( 'NONE',  ( -0.0000000000000000000, 1.000000000000000000, -0.0000000000000000000 ) ) ;
#30 = DIRECTION ( 'NONE',  ( 0.0000000000000000000, 0.0000000000000000000, 1.000000000000000000 ) ) ;
#31 = SURFACE_SIDE_STYLE ('',( #111 ) ) ;
#32 = DIRECTION ( 'NONE',  ( 0.0000000000000000000, 0.0000000000000000000, 1.000000000000000000 ) ) ;
#33 = CARTESIAN_POINT ( 'NONE',  ( 1.285879139104720831E-15, 0.0000000000000000000, -10.50000000000000000 ) ) ;
#34 = DIRECTION ( 'NONE',  ( 0.0000000000000000000, 0.0000000000000000000, 1.000000000000000000 ) ) ;
#35 =( NAMED_UNIT ( * ) PLANE_ANGLE_UNIT ( ) SI_UNIT ( $, .RADIAN. ) );
#36 =( NAMED_UNIT ( * ) SI_UNIT ( $, .STERADIAN. ) SOLID_ANGLE_UNIT ( ) );
#37 = DIRECTION ( 'NONE',  ( 0.0000000000000000000, 0.0000000000000000000, 1.000000000000000000 ) ) ;
#38 =( LENGTH_UNIT ( ) NAMED_UNIT ( * ) SI_UNIT ( .MILLI., .METRE. ) );
#39 = CARTESIAN_POINT ( 'NONE',  ( 0.0000000000000000000, 0.0000000000000000000, 0.0000000000000000000 ) ) ;
#40 = DIRECTION ( 'NONE',  ( -0.0000000000000000000, 1.000000000000000000, -0.0000000000000000000 ) ) ;
#41 = DIRECTION ( 'NONE',  ( -0.0000000000000000000, 1.000000000000000000, -0.0000000000000000000 ) ) ;
#42 = DIRECTION ( 'NONE',  ( 0.0000000000000000000, 0.0000000000000000000, 1.000000000000000000 ) ) ;
#43 = FILL_AREA_STYLE_COLOUR ( '', #69 ) ;
#44 = CARTESIAN_POINT ( 'NONE',  ( 0.0000000000000000000, -9.184850993605153368E-17, 0.0000000000000000000 ) ) ;
#45 = CARTESIAN_POINT ( 'NONE',  ( 0.0000000000000000000, 0.0000000000000000000, 0.0000000000000000000 ) ) ;
#46 = CARTESIAN_POINT ( 'NONE',  ( 0.0000000000000000000, 0.0000000000000000000, 0.0000000000000000000 ) ) ;
#47 = DIRECTION ( 'NONE',  ( 0.0000000000000000000, 0.0000000000000000000, 1.000000000000000000 ) ) ;
#48 = APPLICATION_CONTEXT ( 'automotive_design' ) ;
#49 = ADVANCED_FACE ( 'NONE', ( #133 ), #103, .T. ) ;
#50 = UNCERTAINTY_MEASURE_WITH_UNIT (LENGTH_MEASURE( 1.000000000000000082E-05 ), #132, 'distance_accuracy_value', 'NONE');
#51 = EDGE_CURVE ( 'NONE', #82, #10, #104, .T. ) ;
#52 = DIRECTION ( 'NONE',  ( 0.0000000000000000000, 0.0000000000000000000, 1.000000000000000000 ) ) ;
#53 = CIRCLE ( 'NONE', #138, 0.7500000000000006661 ) ;
#54 = ORIENTED_EDGE ( 'NONE', *, *, #25, .T. ) ;
#55 = DIRECTION ( 'NONE',  ( 0.0000000000000000000, 0.0000000000000000000, 1.000000000000000000 ) ) ;
#56 = ORIENTED_EDGE ( 'NONE', *, *, #3, .T. ) ;
#57 = APPLICATION_PROTOCOL_DEFINITION ( 'draft international standard', 'automotive_design', 1998, #98 ) ;
#58 = FILL_AREA_STYLE_COLOUR ( '', #155 ) ;
#59 = CARTESIAN_POINT ( 'NONE',  ( 0.0000000000000000000, 0.0000000000000000000, 9.750000000000000000 ) ) ;
#60 =( LENGTH_UNIT ( ) NAMED_UNIT ( * ) SI_UNIT ( .MILLI., .METRE. ) );
#61 = FILL_AREA_STYLE ('',( #58 ) ) ;
#62 = ORIENTED_EDGE ( 'NONE', *, *, #84, .T. ) ;
#63 = CARTESIAN_POINT ( 'NONE',  ( 0.0000000000000000000, 0.0000000000000000000, 0.0000000000000000000 ) ) ;
#64 = SURFACE_STYLE_USAGE ( .BOTH. , #65 ) ;
#65 = SURFACE_SIDE_STYLE ('',( #114 ) ) ;
#66 = SHAPE_DEFINITION_REPRESENTATION ( #131, #1 ) ;
#67 =( NAMED_UNIT ( * ) SI_UNIT ( $, .STERADIAN. ) SOLID_ANGLE_UNIT ( ) );
#68 =( NAMED_UNIT ( * ) PLANE_ANGLE_UNIT ( ) SI_UNIT ( $, .RADIAN. ) );
#69 = COLOUR_RGB ( '',0.7529411764705882248, 0.7529411764705882248, 0.7529411764705882248 ) ;
#70 =( GEOMETRIC_REPRESENTATION_CONTEXT ( 3 ) GLOBAL_UNCERTAINTY_ASSIGNED_CONTEXT ( ( #50 ) ) GLOBAL_UNIT_ASSIGNED_CONTEXT ( ( #132, #128, #108 ) ) REPRESENTATION_CONTEXT ( 'NONE', 'WORKASPACE' ) );
#71 = DIRECTION ( 'NONE',  ( -0.0000000000000000000, 1.000000000000000000, -0.0000000000000000000 ) ) ;
#72 = DIRECTION ( 'NONE',  ( -1.000000000000000000, 0.0000000000000000000, 0.0000000000000000000 ) ) ;
#73 = EDGE_LOOP ( 'NONE', ( #83, #101, #56, #92 ) ) ;
#74 = ADVANCED_FACE ( 'NONE', ( #119 ), #105, .T. ) ;
#75 = ORIENTED_EDGE ( 'NONE', *, *, #157, .F. ) ;
#76 = CARTESIAN_POINT ( 'NONE',  ( 0.0000000000000000000, 0.0000000000000000000, 10.50000000000000000 ) ) ;
#77 = APPLICATION_PROTOCOL_DEFINITION ( 'draft international standard', 'automotive_design', 1998, #48 ) ;
#78 = CIRCLE ( 'NONE', #144, 9.000000000000000000 ) ;
#79 = ORIENTED_EDGE ( 'NONE', *, *, #158, .T. ) ;
#80 = CLOSED_SHELL ( 'NONE', ( #49, #136, #121, #74 ) ) ;
#81 = FILL_AREA_STYLE ('',( #43 ) ) ;
#82 = VERTEX_POINT ( 'NONE', #22 ) ;
#83 = ORIENTED_EDGE ( 'NONE', *, *, #158, .F. ) ;
#84 = EDGE_CURVE ( 'NONE', #10, #95, #117, .T. ) ;
#85 = EDGE_CURVE ( 'NONE', #10, #82, #102, .T. ) ;
#86 = PRODUCT_RELATED_PRODUCT_CATEGORY ( 'part', '', ( #89 ) ) ;
#87 = PRODUCT_CONTEXT ( 'NONE', #48, 'mechanical' ) ;
#88 = ORIENTED_EDGE ( 'NONE', *, *, #28, .T. ) ;
#89 = PRODUCT ( '2088835', '2088835', '', ( #87 ) ) ;
#90 = EDGE_LOOP ( 'NONE', ( #115, #100, #127, #54 ) ) ;
#91 = VERTEX_POINT ( 'NONE', #24 ) ;
#92 = ORIENTED_EDGE ( 'NONE', *, *, #51, .T. ) ;
#93 = PRESENTATION_STYLE_ASSIGNMENT (( #130 ) ) ;
#94 = ORIENTED_EDGE ( 'NONE', *, *, #85, .F. ) ;
#95 = VERTEX_POINT ( 'NONE', #33 ) ;
#96 = ORIENTED_EDGE ( 'NONE', *, *, #85, .T. ) ;
#97 = EDGE_LOOP ( 'NONE', ( #99, #79, #96, #8 ) ) ;
#98 = APPLICATION_CONTEXT ( 'automotive_design' ) ;
#99 = ORIENTED_EDGE ( 'NONE', *, *, #28, .F. ) ;
#100 = ORIENTED_EDGE ( 'NONE', *, *, #51, .F. ) ;
#101 = ORIENTED_EDGE ( 'NONE', *, *, #25, .F. ) ;
#102 = CIRCLE ( 'NONE', #145, 0.7500000000000006661 ) ;
#103 = TOROIDAL_SURFACE ( 'NONE', #142, 9.750000000000000000, 0.7500000000000003331 ) ;
#104 = CIRCLE ( 'NONE', #125, 0.7500000000000006661 ) ;
#105 = TOROIDAL_SURFACE ( 'NONE', #151, 9.750000000000000000, 0.7500000000000003331 ) ;
#106 = AXIS2_PLACEMENT_3D ( 'NONE', #9, #13, #12 ) ;
#107 = PRODUCT_DEFINITION_CONTEXT ( 'detailed design', #98, 'design' ) ;
#108 =( NAMED_UNIT ( * ) SI_UNIT ( $, .STERADIAN. ) SOLID_ANGLE_UNIT ( ) );
#109 = CIRCLE ( 'NONE', #106, 0.7500000000000006661 ) ;
#110 = CIRCLE ( 'NONE', #147, 9.000000000000000000 ) ;
#111 = SURFACE_STYLE_FILL_AREA ( #81 ) ;
#112 = FACE_OUTER_BOUND ( 'NONE', #123, .T. ) ;
#113 = DIRECTION ( 'NONE',  ( 1.000000000000000000, 0.0000000000000000000, 0.0000000000000000000 ) ) ;
#114 = SURFACE_STYLE_FILL_AREA ( #61 ) ;
#115 = ORIENTED_EDGE ( 'NONE', *, *, #84, .F. ) ;
#116 = AXIS2_PLACEMENT_3D ( 'NONE', #39, #40, #37 ) ;
#117 = CIRCLE ( 'NONE', #153, 10.50000000000000000 ) ;
#118 = PRODUCT_DEFINITION_FORMATION_WITH_SPECIFIED_SOURCE ( 'ANY', '', #89, .NOT_KNOWN. ) ;
#119 = FACE_OUTER_BOUND ( 'NONE', #73, .T. ) ;
#120 = MANIFOLD_SOLID_BREP ( 'Rotation1', #80 ) ;
#121 = ADVANCED_FACE ( 'NONE', ( #156 ), #137, .T. ) ;
#122 = AXIS2_PLACEMENT_3D ( 'NONE', #46, #71, #55 ) ;
#123 = EDGE_LOOP ( 'NONE', ( #94, #62, #88, #75 ) ) ;
#124 = DIRECTION ( 'NONE',  ( -0.0000000000000000000, 1.000000000000000000, -0.0000000000000000000 ) ) ;
#125 = AXIS2_PLACEMENT_3D ( 'NONE', #16, #18, #19 ) ;
#126 = STYLED_ITEM ( 'NONE', ( #93 ), #1 ) ;
#127 = ORIENTED_EDGE ( 'NONE', *, *, #157, .T. ) ;
#128 =( NAMED_UNIT ( * ) PLANE_ANGLE_UNIT ( ) SI_UNIT ( $, .RADIAN. ) );
#129 = MECHANICAL_DESIGN_GEOMETRIC_PRESENTATION_REPRESENTATION (  '', ( #126 ), #70 ) ;
#130 = SURFACE_STYLE_USAGE ( .BOTH. , #31 ) ;
#131 = PRODUCT_DEFINITION_SHAPE ( 'NONE', 'NONE',  #146 ) ;
#132 =( LENGTH_UNIT ( ) NAMED_UNIT ( * ) SI_UNIT ( .MILLI., .METRE. ) );
#133 = FACE_OUTER_BOUND ( 'NONE', #97, .T. ) ;
#134 = CARTESIAN_POINT ( 'NONE',  ( 0.0000000000000000000, 0.0000000000000000000, 0.0000000000000000000 ) ) ;
#135 = AXIS2_PLACEMENT_3D ( 'NONE', #45, #34, #113 ) ;
#136 = ADVANCED_FACE ( 'NONE', ( #112 ), #139, .T. ) ;
#137 = TOROIDAL_SURFACE ( 'NONE', #152, 9.750000000000000000, 0.7500000000000003331 ) ;
#138 = AXIS2_PLACEMENT_3D ( 'NONE', #5, #4, #7 ) ;
#139 = TOROIDAL_SURFACE ( 'NONE', #122, 9.750000000000000000, 0.7500000000000003331 ) ;
#140 = CIRCLE ( 'NONE', #116, 10.50000000000000000 ) ;
#141 =( GEOMETRIC_REPRESENTATION_CONTEXT ( 3 ) GLOBAL_UNCERTAINTY_ASSIGNED_CONTEXT ( ( #27 ) ) GLOBAL_UNIT_ASSIGNED_CONTEXT ( ( #38, #35, #36 ) ) REPRESENTATION_CONTEXT ( 'NONE', 'WORKASPACE' ) );
#142 = AXIS2_PLACEMENT_3D ( 'NONE', #134, #11, #32 ) ;
#143 =( GEOMETRIC_REPRESENTATION_CONTEXT ( 3 ) GLOBAL_UNCERTAINTY_ASSIGNED_CONTEXT ( ( #150 ) ) GLOBAL_UNIT_ASSIGNED_CONTEXT ( ( #60, #68, #67 ) ) REPRESENTATION_CONTEXT ( 'NONE', 'WORKASPACE' ) );
#144 = AXIS2_PLACEMENT_3D ( 'NONE', #44, #41, #42 ) ;
#145 = AXIS2_PLACEMENT_3D ( 'NONE', #59, #72, #52 ) ;
#146 = PRODUCT_DEFINITION ( 'UNKNOWN', '', #118, #107 ) ;
#147 = AXIS2_PLACEMENT_3D ( 'NONE', #26, #124, #17 ) ;
#148 = PRESENTATION_LAYER_ASSIGNMENT (  '', '', ( #154 ) ) ;
#149 = MECHANICAL_DESIGN_GEOMETRIC_PRESENTATION_REPRESENTATION (  '', ( #154 ), #143 ) ;
#150 = UNCERTAINTY_MEASURE_WITH_UNIT (LENGTH_MEASURE( 1.000000000000000082E-05 ), #60, 'distance_accuracy_value', 'NONE');
#151 = AXIS2_PLACEMENT_3D ( 'NONE', #15, #14, #20 ) ;
#152 = AXIS2_PLACEMENT_3D ( 'NONE', #63, #21, #47 ) ;
#153 = AXIS2_PLACEMENT_3D ( 'NONE', #23, #29, #30 ) ;
#154 = STYLED_ITEM ( 'NONE', ( #2 ), #120 ) ;
#155 = COLOUR_RGB ( '',0.7529411764705882248, 0.7529411764705882248, 0.7529411764705882248 ) ;
#156 = FACE_OUTER_BOUND ( 'NONE', #90, .T. ) ;
#157 = EDGE_CURVE ( 'NONE', #82, #91, #78, .T. ) ;
#158 = EDGE_CURVE ( 'NONE', #95, #10, #140, .T. ) ;
ENDSEC;
END-ISO-10303-21;
