ISO-10303-21;
HEADER;
FILE_DESCRIPTION (( 'STEP AP214' ),
    '1' );
FILE_NAME ('2088851.stp',
    '2019-03-13T12:20:46',
    ( '' ),
    ( '' ),
    'SwSTEP 2.0',
    'SolidWorks 2018',
    '' );
FILE_SCHEMA (( 'AUTOMOTIVE_DESIGN' ));
ENDSEC;

DATA;
#1 = FACE_OUTER_BOUND ( 'NONE', #57, .T. ) ;
#2 = FILL_AREA_STYLE_COLOUR ( '', #102 ) ;
#3 = UNCERTAINTY_MEASURE_WITH_UNIT (LENGTH_MEASURE( 1.000000000000000082E-05 ), #134, 'distance_accuracy_value', 'NONE');
#4 = DIRECTION ( 'NONE',  ( 0.0000000000000000000, 0.0000000000000000000, 1.000000000000000000 ) ) ;
#5 = CARTESIAN_POINT ( 'NONE',  ( 0.0000000000000000000, -1.224646799147355672E-16, 12.50000000000000000 ) ) ;
#6 = CIRCLE ( 'NONE', #35, 1.000000000000000888 ) ;
#7 = CARTESIAN_POINT ( 'NONE',  ( 0.0000000000000000000, 0.0000000000000000000, 0.0000000000000000000 ) ) ;
#8 = CIRCLE ( 'NONE', #56, 12.50000000000000000 ) ;
#9 = DIRECTION ( 'NONE',  ( 0.0000000000000000000, 0.0000000000000000000, 1.000000000000000000 ) ) ;
#10 = DIRECTION ( 'NONE',  ( -1.000000000000000000, 0.0000000000000000000, 0.0000000000000000000 ) ) ;
#11 = CARTESIAN_POINT ( 'NONE',  ( 0.0000000000000000000, 0.0000000000000000000, 13.50000000000000178 ) ) ;
#12 = CARTESIAN_POINT ( 'NONE',  ( 0.0000000000000000000, 0.0000000000000000000, 14.50000000000000178 ) ) ;
#13 = DIRECTION ( 'NONE',  ( -0.0000000000000000000, 1.000000000000000000, -0.0000000000000000000 ) ) ;
#14 = CARTESIAN_POINT ( 'NONE',  ( 1.775737858763662409E-15, 0.0000000000000000000, -14.50000000000000178 ) ) ;
#15 = DIRECTION ( 'NONE',  ( 0.0000000000000000000, 0.0000000000000000000, 1.000000000000000000 ) ) ;
#16 = DIRECTION ( 'NONE',  ( -0.0000000000000000000, 1.000000000000000000, -0.0000000000000000000 ) ) ;
#17 = CARTESIAN_POINT ( 'NONE',  ( 0.0000000000000000000, -1.224646799147355179E-16, 0.0000000000000000000 ) ) ;
#18 = DIRECTION ( 'NONE',  ( 0.0000000000000000000, 0.0000000000000000000, 1.000000000000000000 ) ) ;
#19 = PRESENTATION_STYLE_ASSIGNMENT (( #20 ) ) ;
#20 = SURFACE_STYLE_USAGE ( .BOTH. , #124 ) ;
#21 = FILL_AREA_STYLE ('',( #2 ) ) ;
#22 = SURFACE_SIDE_STYLE ('',( #139 ) ) ;
#23 = DIRECTION ( 'NONE',  ( -1.000000000000000000, 0.0000000000000000000, 0.0000000000000000000 ) ) ;
#24 = DIRECTION ( 'NONE',  ( 0.0000000000000000000, 0.0000000000000000000, 1.000000000000000000 ) ) ;
#25 = FILL_AREA_STYLE ('',( #44 ) ) ;
#26 = CIRCLE ( 'NONE', #62, 14.50000000000000178 ) ;
#27 = AXIS2_PLACEMENT_3D ( 'NONE', #158, #110, #4 ) ;
#28 =( GEOMETRIC_REPRESENTATION_CONTEXT ( 3 ) GLOBAL_UNCERTAINTY_ASSIGNED_CONTEXT ( ( #126 ) ) GLOBAL_UNIT_ASSIGNED_CONTEXT ( ( #122, #84, #157 ) ) REPRESENTATION_CONTEXT ( 'NONE', 'WORKASPACE' ) );
#29 = DIRECTION ( 'NONE',  ( 0.0000000000000000000, 0.0000000000000000000, 1.000000000000000000 ) ) ;
#30 = CIRCLE ( 'NONE', #61, 12.50000000000000000 ) ;
#31 = PRESENTATION_LAYER_ASSIGNMENT (  '', '', ( #91 ) ) ;
#32 = ADVANCED_BREP_SHAPE_REPRESENTATION ( '2088851', ( #45, #85 ), #81 ) ;
#33 = CARTESIAN_POINT ( 'NONE',  ( 0.0000000000000000000, 0.0000000000000000000, 0.0000000000000000000 ) ) ;
#34 = CARTESIAN_POINT ( 'NONE',  ( 0.0000000000000000000, 0.0000000000000000000, 0.0000000000000000000 ) ) ;
#35 = AXIS2_PLACEMENT_3D ( 'NONE', #41, #90, #114 ) ;
#36 = DIRECTION ( 'NONE',  ( 0.0000000000000000000, 0.0000000000000000000, 1.000000000000000000 ) ) ;
#37 = DIRECTION ( 'NONE',  ( 1.000000000000000000, 0.0000000000000000000, 1.224646799147353207E-16 ) ) ;
#38 = STYLED_ITEM ( 'NONE', ( #19 ), #32 ) ;
#39 = CARTESIAN_POINT ( 'NONE',  ( 1.653273178848927064E-15, 0.0000000000000000000, -13.50000000000000178 ) ) ;
#40 = MECHANICAL_DESIGN_GEOMETRIC_PRESENTATION_REPRESENTATION (  '', ( #38 ), #28 ) ;
#41 = CARTESIAN_POINT ( 'NONE',  ( 1.653273178848927064E-15, 0.0000000000000000000, -13.50000000000000178 ) ) ;
#42 =( NAMED_UNIT ( * ) SI_UNIT ( $, .STERADIAN. ) SOLID_ANGLE_UNIT ( ) );
#43 = PRODUCT_RELATED_PRODUCT_CATEGORY ( 'part', '', ( #118 ) ) ;
#44 = FILL_AREA_STYLE_COLOUR ( '', #103 ) ;
#45 = MANIFOLD_SOLID_BREP ( 'Rotation1', #97 ) ;
#46 = DIRECTION ( 'NONE',  ( 0.0000000000000000000, 0.0000000000000000000, 1.000000000000000000 ) ) ;
#47 = DIRECTION ( 'NONE',  ( -0.0000000000000000000, 1.000000000000000000, -0.0000000000000000000 ) ) ;
#48 = EDGE_LOOP ( 'NONE', ( #107, #115, #112, #138 ) ) ;
#49 = DIRECTION ( 'NONE',  ( 0.0000000000000000000, 0.0000000000000000000, 1.000000000000000000 ) ) ;
#50 = AXIS2_PLACEMENT_3D ( 'NONE', #130, #148, #18 ) ;
#51 = ADVANCED_FACE ( 'NONE', ( #133 ), #155, .T. ) ;
#52 = EDGE_CURVE ( 'NONE', #137, #93, #123, .T. ) ;
#53 = AXIS2_PLACEMENT_3D ( 'NONE', #7, #83, #101 ) ;
#54 = AXIS2_PLACEMENT_3D ( 'NONE', #39, #37, #77 ) ;
#55 = TOROIDAL_SURFACE ( 'NONE', #53, 13.50000000000000178, 1.000000000000001554 ) ;
#56 = AXIS2_PLACEMENT_3D ( 'NONE', #17, #16, #15 ) ;
#57 = EDGE_LOOP ( 'NONE', ( #98, #69, #145, #105 ) ) ;
#58 = AXIS2_PLACEMENT_3D ( 'NONE', #70, #74, #49 ) ;
#59 = EDGE_CURVE ( 'NONE', #127, #137, #156, .T. ) ;
#60 = CARTESIAN_POINT ( 'NONE',  ( 0.0000000000000000000, 0.0000000000000000000, 13.50000000000000178 ) ) ;
#61 = AXIS2_PLACEMENT_3D ( 'NONE', #100, #125, #36 ) ;
#62 = AXIS2_PLACEMENT_3D ( 'NONE', #34, #47, #46 ) ;
#63 = AXIS2_PLACEMENT_3D ( 'NONE', #60, #23, #24 ) ;
#64 = AXIS2_PLACEMENT_3D ( 'NONE', #11, #10, #9 ) ;
#65 =( GEOMETRIC_REPRESENTATION_CONTEXT ( 3 ) GLOBAL_UNCERTAINTY_ASSIGNED_CONTEXT ( ( #136 ) ) GLOBAL_UNIT_ASSIGNED_CONTEXT ( ( #146, #120, #72 ) ) REPRESENTATION_CONTEXT ( 'NONE', 'WORKASPACE' ) );
#66 = FACE_OUTER_BOUND ( 'NONE', #141, .T. ) ;
#67 = AXIS2_PLACEMENT_3D ( 'NONE', #33, #13, #149 ) ;
#68 = CARTESIAN_POINT ( 'NONE',  ( 1.530808498934191521E-15, -1.224646799147355672E-16, -12.50000000000000000 ) ) ;
#69 = ORIENTED_EDGE ( 'NONE', *, *, #73, .T. ) ;
#70 = CARTESIAN_POINT ( 'NONE',  ( 0.0000000000000000000, 0.0000000000000000000, 0.0000000000000000000 ) ) ;
#71 = EDGE_CURVE ( 'NONE', #116, #93, #30, .T. ) ;
#72 =( NAMED_UNIT ( * ) SI_UNIT ( $, .STERADIAN. ) SOLID_ANGLE_UNIT ( ) );
#73 = EDGE_CURVE ( 'NONE', #137, #127, #26, .T. ) ;
#74 = DIRECTION ( 'NONE',  ( -0.0000000000000000000, 1.000000000000000000, -0.0000000000000000000 ) ) ;
#75 = EDGE_CURVE ( 'NONE', #127, #116, #128, .T. ) ;
#76 = EDGE_CURVE ( 'NONE', #93, #116, #8, .T. ) ;
#77 = DIRECTION ( 'NONE',  ( 1.224646799147353454E-16, 0.0000000000000000000, -1.000000000000000000 ) ) ;
#78 = EDGE_CURVE ( 'NONE', #93, #137, #95, .T. ) ;
#79 = EDGE_CURVE ( 'NONE', #116, #127, #6, .T. ) ;
#80 = SURFACE_STYLE_FILL_AREA ( #25 ) ;
#81 =( GEOMETRIC_REPRESENTATION_CONTEXT ( 3 ) GLOBAL_UNCERTAINTY_ASSIGNED_CONTEXT ( ( #3 ) ) GLOBAL_UNIT_ASSIGNED_CONTEXT ( ( #134, #129, #42 ) ) REPRESENTATION_CONTEXT ( 'NONE', 'WORKASPACE' ) );
#82 = PRODUCT_DEFINITION_FORMATION_WITH_SPECIFIED_SOURCE ( 'ANY', '', #118, .NOT_KNOWN. ) ;
#83 = DIRECTION ( 'NONE',  ( -0.0000000000000000000, 1.000000000000000000, -0.0000000000000000000 ) ) ;
#84 =( NAMED_UNIT ( * ) PLANE_ANGLE_UNIT ( ) SI_UNIT ( $, .RADIAN. ) );
#85 = AXIS2_PLACEMENT_3D ( 'NONE', #121, #29, #131 ) ;
#86 = PRESENTATION_LAYER_ASSIGNMENT (  '', '', ( #38 ) ) ;
#87 = TOROIDAL_SURFACE ( 'NONE', #50, 13.50000000000000178, 1.000000000000001554 ) ;
#88 = MECHANICAL_DESIGN_GEOMETRIC_PRESENTATION_REPRESENTATION (  '', ( #91 ), #65 ) ;
#89 = PRODUCT_DEFINITION_SHAPE ( 'NONE', 'NONE',  #94 ) ;
#90 = DIRECTION ( 'NONE',  ( 1.000000000000000000, 0.0000000000000000000, 1.224646799147353207E-16 ) ) ;
#91 = STYLED_ITEM ( 'NONE', ( #106 ), #45 ) ;
#92 = TOROIDAL_SURFACE ( 'NONE', #27, 13.50000000000000178, 1.000000000000001554 ) ;
#93 = VERTEX_POINT ( 'NONE', #5 ) ;
#94 = PRODUCT_DEFINITION ( 'UNKNOWN', '', #82, #154 ) ;
#95 = CIRCLE ( 'NONE', #64, 1.000000000000000888 ) ;
#96 = ORIENTED_EDGE ( 'NONE', *, *, #79, .F. ) ;
#97 = CLOSED_SHELL ( 'NONE', ( #153, #151, #142, #51 ) ) ;
#98 = ORIENTED_EDGE ( 'NONE', *, *, #52, .F. ) ;
#99 = EDGE_LOOP ( 'NONE', ( #150, #96, #113, #117 ) ) ;
#100 = CARTESIAN_POINT ( 'NONE',  ( 0.0000000000000000000, -1.224646799147355179E-16, 0.0000000000000000000 ) ) ;
#101 = DIRECTION ( 'NONE',  ( 0.0000000000000000000, 0.0000000000000000000, 1.000000000000000000 ) ) ;
#102 = COLOUR_RGB ( '',0.7529411764705882248, 0.7529411764705882248, 0.7529411764705882248 ) ;
#103 = COLOUR_RGB ( '',0.7529411764705882248, 0.7529411764705882248, 0.7529411764705882248 ) ;
#104 = ORIENTED_EDGE ( 'NONE', *, *, #76, .T. ) ;
#105 = ORIENTED_EDGE ( 'NONE', *, *, #76, .F. ) ;
#106 = PRESENTATION_STYLE_ASSIGNMENT (( #119 ) ) ;
#107 = ORIENTED_EDGE ( 'NONE', *, *, #75, .F. ) ;
#108 = ORIENTED_EDGE ( 'NONE', *, *, #79, .T. ) ;
#109 = ORIENTED_EDGE ( 'NONE', *, *, #73, .F. ) ;
#110 = DIRECTION ( 'NONE',  ( -0.0000000000000000000, 1.000000000000000000, -0.0000000000000000000 ) ) ;
#111 = ORIENTED_EDGE ( 'NONE', *, *, #78, .F. ) ;
#112 = ORIENTED_EDGE ( 'NONE', *, *, #52, .T. ) ;
#113 = ORIENTED_EDGE ( 'NONE', *, *, #71, .T. ) ;
#114 = DIRECTION ( 'NONE',  ( 1.224646799147353454E-16, 0.0000000000000000000, -1.000000000000000000 ) ) ;
#115 = ORIENTED_EDGE ( 'NONE', *, *, #59, .T. ) ;
#116 = VERTEX_POINT ( 'NONE', #68 ) ;
#117 = ORIENTED_EDGE ( 'NONE', *, *, #78, .T. ) ;
#118 = PRODUCT ( '2088851', '2088851', '', ( #152 ) ) ;
#119 = SURFACE_STYLE_USAGE ( .BOTH. , #22 ) ;
#120 =( NAMED_UNIT ( * ) PLANE_ANGLE_UNIT ( ) SI_UNIT ( $, .RADIAN. ) );
#121 = CARTESIAN_POINT ( 'NONE',  ( 0.0000000000000000000, 0.0000000000000000000, 0.0000000000000000000 ) ) ;
#122 =( LENGTH_UNIT ( ) NAMED_UNIT ( * ) SI_UNIT ( .MILLI., .METRE. ) );
#123 = CIRCLE ( 'NONE', #63, 1.000000000000000888 ) ;
#124 = SURFACE_SIDE_STYLE ('',( #80 ) ) ;
#125 = DIRECTION ( 'NONE',  ( -0.0000000000000000000, 1.000000000000000000, -0.0000000000000000000 ) ) ;
#126 = UNCERTAINTY_MEASURE_WITH_UNIT (LENGTH_MEASURE( 1.000000000000000082E-05 ), #122, 'distance_accuracy_value', 'NONE');
#127 = VERTEX_POINT ( 'NONE', #14 ) ;
#128 = CIRCLE ( 'NONE', #54, 1.000000000000000888 ) ;
#129 =( NAMED_UNIT ( * ) PLANE_ANGLE_UNIT ( ) SI_UNIT ( $, .RADIAN. ) );
#130 = CARTESIAN_POINT ( 'NONE',  ( 0.0000000000000000000, 0.0000000000000000000, 0.0000000000000000000 ) ) ;
#131 = DIRECTION ( 'NONE',  ( 1.000000000000000000, 0.0000000000000000000, 0.0000000000000000000 ) ) ;
#132 = APPLICATION_PROTOCOL_DEFINITION ( 'draft international standard', 'automotive_design', 1998, #144 ) ;
#133 = FACE_OUTER_BOUND ( 'NONE', #99, .T. ) ;
#134 =( LENGTH_UNIT ( ) NAMED_UNIT ( * ) SI_UNIT ( .MILLI., .METRE. ) );
#135 = SHAPE_DEFINITION_REPRESENTATION ( #89, #32 ) ;
#136 = UNCERTAINTY_MEASURE_WITH_UNIT (LENGTH_MEASURE( 1.000000000000000082E-05 ), #146, 'distance_accuracy_value', 'NONE');
#137 = VERTEX_POINT ( 'NONE', #12 ) ;
#138 = ORIENTED_EDGE ( 'NONE', *, *, #71, .F. ) ;
#139 = SURFACE_STYLE_FILL_AREA ( #21 ) ;
#140 = APPLICATION_CONTEXT ( 'automotive_design' ) ;
#141 = EDGE_LOOP ( 'NONE', ( #109, #111, #104, #108 ) ) ;
#142 = ADVANCED_FACE ( 'NONE', ( #66 ), #55, .T. ) ;
#143 = APPLICATION_PROTOCOL_DEFINITION ( 'draft international standard', 'automotive_design', 1998, #140 ) ;
#144 = APPLICATION_CONTEXT ( 'automotive_design' ) ;
#145 = ORIENTED_EDGE ( 'NONE', *, *, #75, .T. ) ;
#146 =( LENGTH_UNIT ( ) NAMED_UNIT ( * ) SI_UNIT ( .MILLI., .METRE. ) );
#147 = FACE_OUTER_BOUND ( 'NONE', #48, .T. ) ;
#148 = DIRECTION ( 'NONE',  ( -0.0000000000000000000, 1.000000000000000000, -0.0000000000000000000 ) ) ;
#149 = DIRECTION ( 'NONE',  ( 0.0000000000000000000, 0.0000000000000000000, 1.000000000000000000 ) ) ;
#150 = ORIENTED_EDGE ( 'NONE', *, *, #59, .F. ) ;
#151 = ADVANCED_FACE ( 'NONE', ( #1 ), #87, .T. ) ;
#152 = PRODUCT_CONTEXT ( 'NONE', #140, 'mechanical' ) ;
#153 = ADVANCED_FACE ( 'NONE', ( #147 ), #92, .T. ) ;
#154 = PRODUCT_DEFINITION_CONTEXT ( 'detailed design', #144, 'design' ) ;
#155 = TOROIDAL_SURFACE ( 'NONE', #58, 13.50000000000000178, 1.000000000000001554 ) ;
#156 = CIRCLE ( 'NONE', #67, 14.50000000000000178 ) ;
#157 =( NAMED_UNIT ( * ) SI_UNIT ( $, .STERADIAN. ) SOLID_ANGLE_UNIT ( ) );
#158 = CARTESIAN_POINT ( 'NONE',  ( 0.0000000000000000000, 0.0000000000000000000, 0.0000000000000000000 ) ) ;
ENDSEC;
END-ISO-10303-21;
