ISO-10303-21;
HEADER;
FILE_DESCRIPTION (( 'STEP AP214' ),
    '1' );
FILE_NAME ('3141310.stp',
    '2016-08-23T09:00:32',
    ( '' ),
    ( '' ),
    'SwSTEP 2.0',
    'SolidWorks 2014',
    '' );
FILE_SCHEMA (( 'AUTOMOTIVE_DESIGN' ));
ENDSEC;

DATA;
#1 = PRODUCT_RELATED_PRODUCT_CATEGORY ( 'part', '', ( #40 ) ) ;
#2 = FILL_AREA_STYLE_COLOUR ( '', #52 ) ;
#3 = UNCERTAINTY_MEASURE_WITH_UNIT (LENGTH_MEASURE( 1.000000000000000100E-005 ), #23, 'distance_accuracy_value', 'NONE');
#4 = STYLED_ITEM ( 'NONE', ( #39 ), #22 ) ;
#5 = PRODUCT_CONTEXT ( 'NONE', #33, 'mechanical' ) ;
#6 = APPLICATION_PROTOCOL_DEFINITION ( 'draft international standard', 'automotive_design', 1998, #82 ) ;
#7 = AXIS2_PLACEMENT_3D ( 'NONE', #83, #91, #89 ) ;
#8 = PRODUCT_DEFINITION_FORMATION_WITH_SPECIFIED_SOURCE ( 'ANY', '', #40, .NOT_KNOWN. ) ;
#9 = DIRECTION ( 'NONE',  ( 1.000000000000000000, 0.0000000000000000000, 0.0000000000000000000 ) ) ;
#10 = AXIS2_PLACEMENT_3D ( 'NONE', #15, #13, #9 ) ;
#11 = CLOSED_SHELL ( 'NONE', ( #105, #104, #103, #102 ) ) ;
#12 = EDGE_CURVE ( 'NONE', #50, #139, #56, .T. ) ;
#13 = DIRECTION ( 'NONE',  ( 0.0000000000000000000, 0.0000000000000000000, 1.000000000000000000 ) ) ;
#14 = EDGE_CURVE ( 'NONE', #139, #118, #100, .T. ) ;
#15 = CARTESIAN_POINT ( 'NONE',  ( 0.0000000000000000000, 0.0000000000000000000, 0.0000000000000000000 ) ) ;
#16 = ORIENTED_EDGE ( 'NONE', *, *, #55, .F. ) ;
#17 =( NAMED_UNIT ( * ) SI_UNIT ( $, .STERADIAN. ) SOLID_ANGLE_UNIT ( ) );
#18 = EDGE_CURVE ( 'NONE', #21, #118, #97, .T. ) ;
#19 =( NAMED_UNIT ( * ) PLANE_ANGLE_UNIT ( ) SI_UNIT ( $, .RADIAN. ) );
#20 = EDGE_CURVE ( 'NONE', #21, #50, #27, .T. ) ;
#21 = VERTEX_POINT ( 'NONE', #25 ) ;
#22 = ADVANCED_BREP_SHAPE_REPRESENTATION ( '3141310', ( #37, #10 ), #68 ) ;
#23 =( LENGTH_UNIT ( ) NAMED_UNIT ( * ) SI_UNIT ( .MILLI., .METRE. ) );
#24 = FACE_OUTER_BOUND ( 'NONE', #84, .T. ) ;
#25 = CARTESIAN_POINT ( 'NONE',  ( 0.0000000000000000000, 500.0000000000000000, -4.000000000000000000 ) ) ;
#26 = ORIENTED_EDGE ( 'NONE', *, *, #12, .F. ) ;
#27 = CIRCLE ( 'NONE', #69, 4.000000000000000000 ) ;
#28 = SURFACE_STYLE_USAGE ( .BOTH. , #31 ) ;
#29 = CYLINDRICAL_SURFACE ( 'NONE', #7, 4.000000000000000000 ) ;
#30 = SHAPE_DEFINITION_REPRESENTATION ( #34, #22 ) ;
#31 = SURFACE_SIDE_STYLE ('',( #79 ) ) ;
#32 = FILL_AREA_STYLE ('',( #71 ) ) ;
#33 = APPLICATION_CONTEXT ( 'automotive_design' ) ;
#34 = PRODUCT_DEFINITION_SHAPE ( 'NONE', 'NONE',  #93 ) ;
#35 = VECTOR ( 'NONE', #107, 1000.000000000000000 ) ;
#36 = APPLICATION_PROTOCOL_DEFINITION ( 'draft international standard', 'automotive_design', 1998, #33 ) ;
#37 = MANIFOLD_SOLID_BREP ( 'Aufsatz-Linear austragen1', #11 ) ;
#38 = PRESENTATION_STYLE_ASSIGNMENT (( #125 ) ) ;
#39 = PRESENTATION_STYLE_ASSIGNMENT (( #28 ) ) ;
#40 = PRODUCT ( '3141310', '3141310', '', ( #5 ) ) ;
#41 = ORIENTED_EDGE ( 'NONE', *, *, #20, .T. ) ;
#42 = CYLINDRICAL_SURFACE ( 'NONE', #106, 4.000000000000000000 ) ;
#43 = AXIS2_PLACEMENT_3D ( 'NONE', #101, #80, #44 ) ;
#44 = DIRECTION ( 'NONE',  ( 0.0000000000000000000, 0.0000000000000000000, 1.000000000000000000 ) ) ;
#45 = ORIENTED_EDGE ( 'NONE', *, *, #55, .T. ) ;
#46 = VECTOR ( 'NONE', #120, 1000.000000000000000 ) ;
#47 = ORIENTED_EDGE ( 'NONE', *, *, #14, .T. ) ;
#48 =( NAMED_UNIT ( * ) PLANE_ANGLE_UNIT ( ) SI_UNIT ( $, .RADIAN. ) );
#49 = DIRECTION ( 'NONE',  ( 0.0000000000000000000, 0.0000000000000000000, 1.000000000000000000 ) ) ;
#50 = VERTEX_POINT ( 'NONE', #129 ) ;
#51 = DIRECTION ( 'NONE',  ( 0.0000000000000000000, 1.000000000000000000, 0.0000000000000000000 ) ) ;
#52 = COLOUR_RGB ( '',0.7529411764705882200, 0.7529411764705882200, 0.7529411764705882200 ) ;
#53 = UNCERTAINTY_MEASURE_WITH_UNIT (LENGTH_MEASURE( 1.000000000000000100E-005 ), #124, 'distance_accuracy_value', 'NONE');
#54 =( NAMED_UNIT ( * ) SI_UNIT ( $, .STERADIAN. ) SOLID_ANGLE_UNIT ( ) );
#55 = EDGE_CURVE ( 'NONE', #50, #21, #114, .T. ) ;
#56 = LINE ( 'NONE', #110, #46 ) ;
#57 = MECHANICAL_DESIGN_GEOMETRIC_PRESENTATION_REPRESENTATION (  '', ( #60 ), #62 ) ;
#58 = PRESENTATION_LAYER_ASSIGNMENT (  '', '', ( #60 ) ) ;
#59 = CARTESIAN_POINT ( 'NONE',  ( 0.0000000000000000000, 0.0000000000000000000, 0.0000000000000000000 ) ) ;
#60 = STYLED_ITEM ( 'NONE', ( #38 ), #37 ) ;
#61 = AXIS2_PLACEMENT_3D ( 'NONE', #112, #109, #99 ) ;
#62 =( GEOMETRIC_REPRESENTATION_CONTEXT ( 3 ) GLOBAL_UNCERTAINTY_ASSIGNED_CONTEXT ( ( #53 ) ) GLOBAL_UNIT_ASSIGNED_CONTEXT ( ( #124, #122, #121 ) ) REPRESENTATION_CONTEXT ( 'NONE', 'WORKASPACE' ) );
#63 = CARTESIAN_POINT ( 'NONE',  ( 0.0000000000000000000, 500.0000000000000000, 0.0000000000000000000 ) ) ;
#64 = AXIS2_PLACEMENT_3D ( 'NONE', #116, #96, #92 ) ;
#65 = AXIS2_PLACEMENT_3D ( 'NONE', #117, #88, #87 ) ;
#66 = CARTESIAN_POINT ( 'NONE',  ( 4.898587196589412800E-016, 0.0000000000000000000, 4.000000000000000000 ) ) ;
#67 = AXIS2_PLACEMENT_3D ( 'NONE', #59, #51, #49 ) ;
#68 =( GEOMETRIC_REPRESENTATION_CONTEXT ( 3 ) GLOBAL_UNCERTAINTY_ASSIGNED_CONTEXT ( ( #85 ) ) GLOBAL_UNIT_ASSIGNED_CONTEXT ( ( #72, #48, #54 ) ) REPRESENTATION_CONTEXT ( 'NONE', 'WORKASPACE' ) );
#69 = AXIS2_PLACEMENT_3D ( 'NONE', #136, #133, #132 ) ;
#70 = CARTESIAN_POINT ( 'NONE',  ( 0.0000000000000000000, 0.0000000000000000000, -4.000000000000000000 ) ) ;
#71 = FILL_AREA_STYLE_COLOUR ( '', #90 ) ;
#72 =( LENGTH_UNIT ( ) NAMED_UNIT ( * ) SI_UNIT ( .MILLI., .METRE. ) );
#73 = DIRECTION ( 'NONE',  ( -0.0000000000000000000, -1.000000000000000000, -0.0000000000000000000 ) ) ;
#74 =( GEOMETRIC_REPRESENTATION_CONTEXT ( 3 ) GLOBAL_UNCERTAINTY_ASSIGNED_CONTEXT ( ( #3 ) ) GLOBAL_UNIT_ASSIGNED_CONTEXT ( ( #23, #19, #17 ) ) REPRESENTATION_CONTEXT ( 'NONE', 'WORKASPACE' ) );
#75 = FACE_OUTER_BOUND ( 'NONE', #135, .T. ) ;
#76 = FACE_OUTER_BOUND ( 'NONE', #123, .T. ) ;
#77 = FACE_OUTER_BOUND ( 'NONE', #137, .T. ) ;
#78 = CIRCLE ( 'NONE', #67, 4.000000000000000000 ) ;
#79 = SURFACE_STYLE_FILL_AREA ( #32 ) ;
#80 = DIRECTION ( 'NONE',  ( 0.0000000000000000000, 1.000000000000000000, 0.0000000000000000000 ) ) ;
#81 = DIRECTION ( 'NONE',  ( 0.0000000000000000000, 0.0000000000000000000, -1.000000000000000000 ) ) ;
#82 = APPLICATION_CONTEXT ( 'automotive_design' ) ;
#83 = CARTESIAN_POINT ( 'NONE',  ( 0.0000000000000000000, 500.0000000000000000, 0.0000000000000000000 ) ) ;
#84 = EDGE_LOOP ( 'NONE', ( #26, #86, #128, #108 ) ) ;
#85 = UNCERTAINTY_MEASURE_WITH_UNIT (LENGTH_MEASURE( 1.000000000000000100E-005 ), #72, 'distance_accuracy_value', 'NONE');
#86 = ORIENTED_EDGE ( 'NONE', *, *, #20, .F. ) ;
#87 = DIRECTION ( 'NONE',  ( 0.0000000000000000000, -0.0000000000000000000, 1.000000000000000000 ) ) ;
#88 = DIRECTION ( 'NONE',  ( 0.0000000000000000000, 1.000000000000000000, 0.0000000000000000000 ) ) ;
#89 = DIRECTION ( 'NONE',  ( 0.0000000000000000000, 0.0000000000000000000, -1.000000000000000000 ) ) ;
#90 = COLOUR_RGB ( '',0.7529411764705882200, 0.7529411764705882200, 0.7529411764705882200 ) ;
#91 = DIRECTION ( 'NONE',  ( -0.0000000000000000000, -1.000000000000000000, -0.0000000000000000000 ) ) ;
#92 = DIRECTION ( 'NONE',  ( 0.0000000000000000000, -0.0000000000000000000, 1.000000000000000000 ) ) ;
#93 = PRODUCT_DEFINITION ( 'UNKNOWN', '', #8, #138 ) ;
#94 = CARTESIAN_POINT ( 'NONE',  ( 0.0000000000000000000, 500.0000000000000000, -4.000000000000000000 ) ) ;
#95 = SURFACE_STYLE_FILL_AREA ( #111 ) ;
#96 = DIRECTION ( 'NONE',  ( 0.0000000000000000000, 1.000000000000000000, 0.0000000000000000000 ) ) ;
#97 = LINE ( 'NONE', #94, #35 ) ;
#98 = PRESENTATION_LAYER_ASSIGNMENT (  '', '', ( #4 ) ) ;
#99 = DIRECTION ( 'NONE',  ( 0.0000000000000000000, 0.0000000000000000000, 1.000000000000000000 ) ) ;
#100 = CIRCLE ( 'NONE', #43, 4.000000000000000000 ) ;
#101 = CARTESIAN_POINT ( 'NONE',  ( 0.0000000000000000000, 0.0000000000000000000, 0.0000000000000000000 ) ) ;
#102 = ADVANCED_FACE ( 'NONE', ( #75 ), #130, .F. ) ;
#103 = ADVANCED_FACE ( 'NONE', ( #77 ), #119, .T. ) ;
#104 = ADVANCED_FACE ( 'NONE', ( #24 ), #29, .T. ) ;
#105 = ADVANCED_FACE ( 'NONE', ( #76 ), #42, .T. ) ;
#106 = AXIS2_PLACEMENT_3D ( 'NONE', #63, #73, #81 ) ;
#107 = DIRECTION ( 'NONE',  ( -0.0000000000000000000, -1.000000000000000000, -0.0000000000000000000 ) ) ;
#108 = ORIENTED_EDGE ( 'NONE', *, *, #126, .T. ) ;
#109 = DIRECTION ( 'NONE',  ( 0.0000000000000000000, 1.000000000000000000, 0.0000000000000000000 ) ) ;
#110 = CARTESIAN_POINT ( 'NONE',  ( 4.898587196589412800E-016, 500.0000000000000000, 4.000000000000000000 ) ) ;
#111 = FILL_AREA_STYLE ('',( #2 ) ) ;
#112 = CARTESIAN_POINT ( 'NONE',  ( 0.0000000000000000000, 500.0000000000000000, 0.0000000000000000000 ) ) ;
#113 = ORIENTED_EDGE ( 'NONE', *, *, #12, .T. ) ;
#114 = CIRCLE ( 'NONE', #61, 4.000000000000000000 ) ;
#115 = MECHANICAL_DESIGN_GEOMETRIC_PRESENTATION_REPRESENTATION (  '', ( #4 ), #74 ) ;
#116 = CARTESIAN_POINT ( 'NONE',  ( 0.0000000000000000000, 0.0000000000000000000, 0.0000000000000000000 ) ) ;
#117 = CARTESIAN_POINT ( 'NONE',  ( 0.0000000000000000000, 500.0000000000000000, 0.0000000000000000000 ) ) ;
#118 = VERTEX_POINT ( 'NONE', #70 ) ;
#119 = PLANE ( 'NONE',  #65 ) ;
#120 = DIRECTION ( 'NONE',  ( -0.0000000000000000000, -1.000000000000000000, -0.0000000000000000000 ) ) ;
#121 =( NAMED_UNIT ( * ) SI_UNIT ( $, .STERADIAN. ) SOLID_ANGLE_UNIT ( ) );
#122 =( NAMED_UNIT ( * ) PLANE_ANGLE_UNIT ( ) SI_UNIT ( $, .RADIAN. ) );
#123 = EDGE_LOOP ( 'NONE', ( #16, #113, #47, #140 ) ) ;
#124 =( LENGTH_UNIT ( ) NAMED_UNIT ( * ) SI_UNIT ( .MILLI., .METRE. ) );
#125 = SURFACE_STYLE_USAGE ( .BOTH. , #127 ) ;
#126 = EDGE_CURVE ( 'NONE', #118, #139, #78, .T. ) ;
#127 = SURFACE_SIDE_STYLE ('',( #95 ) ) ;
#128 = ORIENTED_EDGE ( 'NONE', *, *, #18, .T. ) ;
#129 = CARTESIAN_POINT ( 'NONE',  ( 4.898587196589412800E-016, 500.0000000000000000, 4.000000000000000000 ) ) ;
#130 = PLANE ( 'NONE',  #64 ) ;
#131 = ORIENTED_EDGE ( 'NONE', *, *, #126, .F. ) ;
#132 = DIRECTION ( 'NONE',  ( 0.0000000000000000000, 0.0000000000000000000, 1.000000000000000000 ) ) ;
#133 = DIRECTION ( 'NONE',  ( 0.0000000000000000000, 1.000000000000000000, 0.0000000000000000000 ) ) ;
#134 = ORIENTED_EDGE ( 'NONE', *, *, #14, .F. ) ;
#135 = EDGE_LOOP ( 'NONE', ( #131, #134 ) ) ;
#136 = CARTESIAN_POINT ( 'NONE',  ( 0.0000000000000000000, 500.0000000000000000, 0.0000000000000000000 ) ) ;
#137 = EDGE_LOOP ( 'NONE', ( #41, #45 ) ) ;
#138 = PRODUCT_DEFINITION_CONTEXT ( 'detailed design', #82, 'design' ) ;
#139 = VERTEX_POINT ( 'NONE', #66 ) ;
#140 = ORIENTED_EDGE ( 'NONE', *, *, #18, .F. ) ;
ENDSEC;
END-ISO-10303-21;
