ISO-10303-21;
HEADER;
FILE_DESCRIPTION (( 'STEP AP214' ),
    '1' );
FILE_NAME ('5015723.stp',
    '2017-06-14T08:07:58',
    ( '' ),
    ( '' ),
    'SwSTEP 2.0',
    'SolidWorks 2016',
    '' );
FILE_SCHEMA (( 'AUTOMOTIVE_DESIGN' ));
ENDSEC;

DATA;
#1 = EDGE_CURVE ( 'NONE', #50, #12, #59, .T. ) ;
#2 = CARTESIAN_POINT ( 'NONE',  ( 5.000000000000000000, -5.000000000000000000, 106.0000000000000000 ) ) ;
#3 = VECTOR ( 'NONE', #38, 1000.000000000000000 ) ;
#4 = AXIS2_PLACEMENT_3D ( 'NONE', #37, #104, #126 ) ;
#5 = EDGE_LOOP ( 'NONE', ( #27, #26, #107, #48 ) ) ;
#6 = PRESENTATION_STYLE_ASSIGNMENT (( #92 ) ) ;
#7 = CARTESIAN_POINT ( 'NONE',  ( -5.000000000000000000, -5.000000000000000000, -106.0000000000000000 ) ) ;
#8 = DIRECTION ( 'NONE',  ( 0.0000000000000000000, 1.000000000000000000, 0.0000000000000000000 ) ) ;
#9 = CARTESIAN_POINT ( 'NONE',  ( 0.0000000000000000000, 0.0000000000000000000, -106.0000000000000000 ) ) ;
#10 = DIRECTION ( 'NONE',  ( 1.000000000000000000, 0.0000000000000000000, 0.0000000000000000000 ) ) ;
#11 = DIRECTION ( 'NONE',  ( -1.000000000000000000, 0.0000000000000000000, -0.0000000000000000000 ) ) ;
#12 = VERTEX_POINT ( 'NONE', #106 ) ;
#13 = ORIENTED_EDGE ( 'NONE', *, *, #131, .T. ) ;
#14 = ORIENTED_EDGE ( 'NONE', *, *, #65, .T. ) ;
#15 =( GEOMETRIC_REPRESENTATION_CONTEXT ( 3 ) GLOBAL_UNCERTAINTY_ASSIGNED_CONTEXT ( ( #32 ) ) GLOBAL_UNIT_ASSIGNED_CONTEXT ( ( #67, #61, #49 ) ) REPRESENTATION_CONTEXT ( 'NONE', 'WORKASPACE' ) );
#16 = EDGE_LOOP ( 'NONE', ( #151, #86, #136, #138 ) ) ;
#17 = ORIENTED_EDGE ( 'NONE', *, *, #147, .T. ) ;
#18 = CARTESIAN_POINT ( 'NONE',  ( -5.000000000000000000, 5.000000000000000000, 106.0000000000000000 ) ) ;
#19 = PRODUCT_DEFINITION_FORMATION_WITH_SPECIFIED_SOURCE ( 'ANY', '', #153, .NOT_KNOWN. ) ;
#20 = DIRECTION ( 'NONE',  ( 0.0000000000000000000, 1.000000000000000000, 0.0000000000000000000 ) ) ;
#21 = DIRECTION ( 'NONE',  ( 0.0000000000000000000, 0.0000000000000000000, -1.000000000000000000 ) ) ;
#22 = DIRECTION ( 'NONE',  ( -0.0000000000000000000, -0.0000000000000000000, -1.000000000000000000 ) ) ;
#23 = CARTESIAN_POINT ( 'NONE',  ( 5.000000000000000000, 5.000000000000000000, -106.0000000000000000 ) ) ;
#24 = CARTESIAN_POINT ( 'NONE',  ( 5.000000000000000000, -5.000000000000000000, 106.0000000000000000 ) ) ;
#25 = PLANE ( 'NONE',  #144 ) ;
#26 = ORIENTED_EDGE ( 'NONE', *, *, #71, .F. ) ;
#27 = ORIENTED_EDGE ( 'NONE', *, *, #108, .T. ) ;
#28 = VERTEX_POINT ( 'NONE', #119 ) ;
#29 = ORIENTED_EDGE ( 'NONE', *, *, #102, .F. ) ;
#30 = STYLED_ITEM ( 'NONE', ( #44 ), #191 ) ;
#31 = VERTEX_POINT ( 'NONE', #120 ) ;
#32 = UNCERTAINTY_MEASURE_WITH_UNIT (LENGTH_MEASURE( 1.000000000000000100E-005 ), #67, 'distance_accuracy_value', 'NONE');
#33 = CARTESIAN_POINT ( 'NONE',  ( 5.000000000000000000, -5.000000000000000000, -106.0000000000000000 ) ) ;
#34 = CARTESIAN_POINT ( 'NONE',  ( -5.000000000000000000, -5.000000000000000000, -106.0000000000000000 ) ) ;
#35 = CLOSED_SHELL ( 'NONE', ( #196, #168, #47, #162, #177, #149 ) ) ;
#36 = DIRECTION ( 'NONE',  ( 0.0000000000000000000, 1.000000000000000000, 0.0000000000000000000 ) ) ;
#37 = CARTESIAN_POINT ( 'NONE',  ( 0.0000000000000000000, 0.0000000000000000000, 106.0000000000000000 ) ) ;
#38 = DIRECTION ( 'NONE',  ( -0.0000000000000000000, -0.0000000000000000000, -1.000000000000000000 ) ) ;
#39 = ORIENTED_EDGE ( 'NONE', *, *, #175, .F. ) ;
#40 = VECTOR ( 'NONE', #22, 1000.000000000000000 ) ;
#41 = CARTESIAN_POINT ( 'NONE',  ( 5.000000000000000000, -5.000000000000000000, -106.0000000000000000 ) ) ;
#42 = PLANE ( 'NONE',  #139 ) ;
#43 = LINE ( 'NONE', #2, #140 ) ;
#44 = PRESENTATION_STYLE_ASSIGNMENT (( #66 ) ) ;
#45 = PRODUCT_DEFINITION_SHAPE ( 'NONE', 'NONE',  #141 ) ;
#46 = SHAPE_DEFINITION_REPRESENTATION ( #45, #129 ) ;
#47 = ADVANCED_FACE ( 'NONE', ( #74 ), #111, .F. ) ;
#48 = ORIENTED_EDGE ( 'NONE', *, *, #198, .T. ) ;
#49 =( NAMED_UNIT ( * ) SI_UNIT ( $, .STERADIAN. ) SOLID_ANGLE_UNIT ( ) );
#50 = VERTEX_POINT ( 'NONE', #132 ) ;
#51 = FILL_AREA_STYLE_COLOUR ( '', #188 ) ;
#52 = SURFACE_SIDE_STYLE ('',( #172 ) ) ;
#53 = SURFACE_STYLE_FILL_AREA ( #80 ) ;
#54 = PLANE ( 'NONE',  #85 ) ;
#55 = CARTESIAN_POINT ( 'NONE',  ( -5.000000000000000000, -5.000000000000000000, 106.0000000000000000 ) ) ;
#56 = CARTESIAN_POINT ( 'NONE',  ( -5.000000000000000000, -5.000000000000000000, -106.0000000000000000 ) ) ;
#57 = AXIS2_PLACEMENT_3D ( 'NONE', #18, #185, #187 ) ;
#58 =( GEOMETRIC_REPRESENTATION_CONTEXT ( 3 ) GLOBAL_UNCERTAINTY_ASSIGNED_CONTEXT ( ( #146 ) ) GLOBAL_UNIT_ASSIGNED_CONTEXT ( ( #78, #79, #103 ) ) REPRESENTATION_CONTEXT ( 'NONE', 'WORKASPACE' ) );
#59 = LINE ( 'NONE', #143, #202 ) ;
#60 = DIRECTION ( 'NONE',  ( -0.0000000000000000000, -1.000000000000000000, -0.0000000000000000000 ) ) ;
#61 =( NAMED_UNIT ( * ) PLANE_ANGLE_UNIT ( ) SI_UNIT ( $, .RADIAN. ) );
#62 = PRESENTATION_LAYER_ASSIGNMENT (  '', '', ( #30 ) ) ;
#63 = CARTESIAN_POINT ( 'NONE',  ( 5.000000000000000000, 5.000000000000000000, 106.0000000000000000 ) ) ;
#64 = FILL_AREA_STYLE ('',( #72 ) ) ;
#65 = EDGE_CURVE ( 'NONE', #12, #99, #121, .T. ) ;
#66 = SURFACE_STYLE_USAGE ( .BOTH. , #52 ) ;
#67 =( LENGTH_UNIT ( ) NAMED_UNIT ( * ) SI_UNIT ( .MILLI., .METRE. ) );
#68 = DIRECTION ( 'NONE',  ( 0.0000000000000000000, 0.0000000000000000000, 1.000000000000000000 ) ) ;
#69 = CARTESIAN_POINT ( 'NONE',  ( 5.000000000000000000, -5.000000000000000000, 106.0000000000000000 ) ) ;
#70 = DIRECTION ( 'NONE',  ( -1.000000000000000000, 0.0000000000000000000, 0.0000000000000000000 ) ) ;
#71 = EDGE_CURVE ( 'NONE', #50, #124, #163, .T. ) ;
#72 = FILL_AREA_STYLE_COLOUR ( '', #123 ) ;
#73 = CARTESIAN_POINT ( 'NONE',  ( 0.0000000000000000000, 0.0000000000000000000, 0.0000000000000000000 ) ) ;
#74 = FACE_OUTER_BOUND ( 'NONE', #134, .T. ) ;
#75 = LINE ( 'NONE', #181, #200 ) ;
#76 = APPLICATION_CONTEXT ( 'automotive_design' ) ;
#77 = DIRECTION ( 'NONE',  ( -0.0000000000000000000, -0.0000000000000000000, -1.000000000000000000 ) ) ;
#78 =( LENGTH_UNIT ( ) NAMED_UNIT ( * ) SI_UNIT ( .MILLI., .METRE. ) );
#79 =( NAMED_UNIT ( * ) PLANE_ANGLE_UNIT ( ) SI_UNIT ( $, .RADIAN. ) );
#80 = FILL_AREA_STYLE ('',( #51 ) ) ;
#81 = CARTESIAN_POINT ( 'NONE',  ( -5.000000000000000000, -5.000000000000000000, 106.0000000000000000 ) ) ;
#82 = APPLICATION_PROTOCOL_DEFINITION ( 'draft international standard', 'automotive_design', 1998, #89 ) ;
#83 = DIRECTION ( 'NONE',  ( 0.0000000000000000000, 0.0000000000000000000, -1.000000000000000000 ) ) ;
#84 = SURFACE_SIDE_STYLE ('',( #53 ) ) ;
#85 = AXIS2_PLACEMENT_3D ( 'NONE', #69, #70, #68 ) ;
#86 = ORIENTED_EDGE ( 'NONE', *, *, #147, .F. ) ;
#87 = DIRECTION ( 'NONE',  ( 1.000000000000000000, 0.0000000000000000000, 0.0000000000000000000 ) ) ;
#88 = DIRECTION ( 'NONE',  ( -0.0000000000000000000, -1.000000000000000000, -0.0000000000000000000 ) ) ;
#89 = APPLICATION_CONTEXT ( 'automotive_design' ) ;
#90 = PRODUCT_CONTEXT ( 'NONE', #89, 'mechanical' ) ;
#91 = APPLICATION_PROTOCOL_DEFINITION ( 'draft international standard', 'automotive_design', 1998, #76 ) ;
#92 = SURFACE_STYLE_USAGE ( .BOTH. , #84 ) ;
#93 = ORIENTED_EDGE ( 'NONE', *, *, #122, .F. ) ;
#94 = AXIS2_PLACEMENT_3D ( 'NONE', #105, #87, #83 ) ;
#95 =( LENGTH_UNIT ( ) NAMED_UNIT ( * ) SI_UNIT ( .MILLI., .METRE. ) );
#96 =( NAMED_UNIT ( * ) PLANE_ANGLE_UNIT ( ) SI_UNIT ( $, .RADIAN. ) );
#97 =( NAMED_UNIT ( * ) SI_UNIT ( $, .STERADIAN. ) SOLID_ANGLE_UNIT ( ) );
#98 = DIRECTION ( 'NONE',  ( 0.0000000000000000000, 0.0000000000000000000, 1.000000000000000000 ) ) ;
#99 = VERTEX_POINT ( 'NONE', #142 ) ;
#100 = DIRECTION ( 'NONE',  ( 1.000000000000000000, 0.0000000000000000000, 0.0000000000000000000 ) ) ;
#101 = FACE_OUTER_BOUND ( 'NONE', #16, .T. ) ;
#102 = EDGE_CURVE ( 'NONE', #12, #28, #193, .T. ) ;
#103 =( NAMED_UNIT ( * ) SI_UNIT ( $, .STERADIAN. ) SOLID_ANGLE_UNIT ( ) );
#104 = DIRECTION ( 'NONE',  ( 0.0000000000000000000, 0.0000000000000000000, -1.000000000000000000 ) ) ;
#105 = CARTESIAN_POINT ( 'NONE',  ( -5.000000000000000000, -5.000000000000000000, 106.0000000000000000 ) ) ;
#106 = CARTESIAN_POINT ( 'NONE',  ( -5.000000000000000000, 5.000000000000000000, 106.0000000000000000 ) ) ;
#107 = ORIENTED_EDGE ( 'NONE', *, *, #131, .F. ) ;
#108 = EDGE_CURVE ( 'NONE', #112, #124, #128, .T. ) ;
#109 = VECTOR ( 'NONE', #10, 1000.000000000000000 ) ;
#110 = PRESENTATION_LAYER_ASSIGNMENT (  '', '', ( #152 ) ) ;
#111 = PLANE ( 'NONE',  #94 ) ;
#112 = VERTEX_POINT ( 'NONE', #33 ) ;
#113 = MECHANICAL_DESIGN_GEOMETRIC_PRESENTATION_REPRESENTATION (  '', ( #152 ), #174 ) ;
#114 = AXIS2_PLACEMENT_3D ( 'NONE', #73, #98, #100 ) ;
#115 = MECHANICAL_DESIGN_GEOMETRIC_PRESENTATION_REPRESENTATION (  '', ( #30 ), #15 ) ;
#116 = LINE ( 'NONE', #176, #160 ) ;
#117 = LINE ( 'NONE', #24, #166 ) ;
#118 = LINE ( 'NONE', #55, #40 ) ;
#119 = CARTESIAN_POINT ( 'NONE',  ( -5.000000000000000000, 5.000000000000000000, -106.0000000000000000 ) ) ;
#120 = CARTESIAN_POINT ( 'NONE',  ( 5.000000000000000000, -5.000000000000000000, 106.0000000000000000 ) ) ;
#121 = LINE ( 'NONE', #81, #135 ) ;
#122 = EDGE_CURVE ( 'NONE', #99, #156, #118, .T. ) ;
#123 = COLOUR_RGB ( '',0.7529411764705882200, 0.7529411764705882200, 0.7529411764705882200 ) ;
#124 = VERTEX_POINT ( 'NONE', #23 ) ;
#125 = FACE_OUTER_BOUND ( 'NONE', #158, .T. ) ;
#126 = DIRECTION ( 'NONE',  ( -1.000000000000000000, 0.0000000000000000000, -0.0000000000000000000 ) ) ;
#127 = ORIENTED_EDGE ( 'NONE', *, *, #1, .F. ) ;
#128 = LINE ( 'NONE', #41, #170 ) ;
#129 = ADVANCED_BREP_SHAPE_REPRESENTATION ( '5015723', ( #191, #114 ), #58 ) ;
#130 = DIRECTION ( 'NONE',  ( -1.000000000000000000, -0.0000000000000000000, -0.0000000000000000000 ) ) ;
#131 = EDGE_CURVE ( 'NONE', #31, #50, #117, .T. ) ;
#132 = CARTESIAN_POINT ( 'NONE',  ( 5.000000000000000000, 5.000000000000000000, 106.0000000000000000 ) ) ;
#133 = CARTESIAN_POINT ( 'NONE',  ( -5.000000000000000000, -5.000000000000000000, 106.0000000000000000 ) ) ;
#134 = EDGE_LOOP ( 'NONE', ( #186, #93, #145, #195 ) ) ;
#135 = VECTOR ( 'NONE', #88, 1000.000000000000000 ) ;
#136 = ORIENTED_EDGE ( 'NONE', *, *, #180, .F. ) ;
#137 = FACE_OUTER_BOUND ( 'NONE', #173, .T. ) ;
#138 = ORIENTED_EDGE ( 'NONE', *, *, #167, .F. ) ;
#139 = AXIS2_PLACEMENT_3D ( 'NONE', #133, #20, #178 ) ;
#140 = VECTOR ( 'NONE', #77, 1000.000000000000000 ) ;
#141 = PRODUCT_DEFINITION ( 'UNKNOWN', '', #19, #192 ) ;
#142 = CARTESIAN_POINT ( 'NONE',  ( -5.000000000000000000, -5.000000000000000000, 106.0000000000000000 ) ) ;
#143 = CARTESIAN_POINT ( 'NONE',  ( -5.000000000000000000, 5.000000000000000000, 106.0000000000000000 ) ) ;
#144 = AXIS2_PLACEMENT_3D ( 'NONE', #9, #21, #11 ) ;
#145 = ORIENTED_EDGE ( 'NONE', *, *, #65, .F. ) ;
#146 = UNCERTAINTY_MEASURE_WITH_UNIT (LENGTH_MEASURE( 1.000000000000000100E-005 ), #78, 'distance_accuracy_value', 'NONE');
#147 = EDGE_CURVE ( 'NONE', #156, #112, #159, .T. ) ;
#148 = ORIENTED_EDGE ( 'NONE', *, *, #198, .F. ) ;
#149 = ADVANCED_FACE ( 'NONE', ( #101 ), #25, .T. ) ;
#150 = DIRECTION ( 'NONE',  ( -0.0000000000000000000, -0.0000000000000000000, -1.000000000000000000 ) ) ;
#151 = ORIENTED_EDGE ( 'NONE', *, *, #108, .F. ) ;
#152 = STYLED_ITEM ( 'NONE', ( #6 ), #129 ) ;
#153 = PRODUCT ( '5015723', '5015723', '', ( #90 ) ) ;
#154 = ORIENTED_EDGE ( 'NONE', *, *, #122, .T. ) ;
#155 = UNCERTAINTY_MEASURE_WITH_UNIT (LENGTH_MEASURE( 1.000000000000000100E-005 ), #95, 'distance_accuracy_value', 'NONE');
#156 = VERTEX_POINT ( 'NONE', #7 ) ;
#157 = FACE_OUTER_BOUND ( 'NONE', #201, .T. ) ;
#158 = EDGE_LOOP ( 'NONE', ( #17, #148, #39, #154 ) ) ;
#159 = LINE ( 'NONE', #34, #109 ) ;
#160 = VECTOR ( 'NONE', #183, 1000.000000000000000 ) ;
#161 = FACE_OUTER_BOUND ( 'NONE', #5, .T. ) ;
#162 = ADVANCED_FACE ( 'NONE', ( #125 ), #42, .F. ) ;
#163 = LINE ( 'NONE', #63, #171 ) ;
#164 = PRODUCT_RELATED_PRODUCT_CATEGORY ( 'part', '', ( #153 ) ) ;
#165 = VECTOR ( 'NONE', #60, 1000.000000000000000 ) ;
#166 = VECTOR ( 'NONE', #8, 1000.000000000000000 ) ;
#167 = EDGE_CURVE ( 'NONE', #124, #28, #75, .T. ) ;
#168 = ADVANCED_FACE ( 'NONE', ( #157 ), #179, .F. ) ;
#169 = ORIENTED_EDGE ( 'NONE', *, *, #71, .T. ) ;
#170 = VECTOR ( 'NONE', #36, 1000.000000000000000 ) ;
#171 = VECTOR ( 'NONE', #150, 1000.000000000000000 ) ;
#172 = SURFACE_STYLE_FILL_AREA ( #64 ) ;
#173 = EDGE_LOOP ( 'NONE', ( #13, #189, #14, #184 ) ) ;
#174 =( GEOMETRIC_REPRESENTATION_CONTEXT ( 3 ) GLOBAL_UNCERTAINTY_ASSIGNED_CONTEXT ( ( #155 ) ) GLOBAL_UNIT_ASSIGNED_CONTEXT ( ( #95, #96, #97 ) ) REPRESENTATION_CONTEXT ( 'NONE', 'WORKASPACE' ) );
#175 = EDGE_CURVE ( 'NONE', #99, #31, #116, .T. ) ;
#176 = CARTESIAN_POINT ( 'NONE',  ( -5.000000000000000000, -5.000000000000000000, 106.0000000000000000 ) ) ;
#177 = ADVANCED_FACE ( 'NONE', ( #137 ), #190, .F. ) ;
#178 = DIRECTION ( 'NONE',  ( 0.0000000000000000000, -0.0000000000000000000, 1.000000000000000000 ) ) ;
#179 = PLANE ( 'NONE',  #57 ) ;
#180 = EDGE_CURVE ( 'NONE', #28, #156, #194, .T. ) ;
#181 = CARTESIAN_POINT ( 'NONE',  ( -5.000000000000000000, 5.000000000000000000, -106.0000000000000000 ) ) ;
#182 = DIRECTION ( 'NONE',  ( -1.000000000000000000, -0.0000000000000000000, -0.0000000000000000000 ) ) ;
#183 = DIRECTION ( 'NONE',  ( 1.000000000000000000, 0.0000000000000000000, 0.0000000000000000000 ) ) ;
#184 = ORIENTED_EDGE ( 'NONE', *, *, #175, .T. ) ;
#185 = DIRECTION ( 'NONE',  ( 0.0000000000000000000, -1.000000000000000000, 0.0000000000000000000 ) ) ;
#186 = ORIENTED_EDGE ( 'NONE', *, *, #180, .T. ) ;
#187 = DIRECTION ( 'NONE',  ( 0.0000000000000000000, -0.0000000000000000000, -1.000000000000000000 ) ) ;
#188 = COLOUR_RGB ( '',0.7529411764705882200, 0.7529411764705882200, 0.7529411764705882200 ) ;
#189 = ORIENTED_EDGE ( 'NONE', *, *, #1, .T. ) ;
#190 = PLANE ( 'NONE',  #4 ) ;
#191 = MANIFOLD_SOLID_BREP ( 'Boss-Extrude1', #35 ) ;
#192 = PRODUCT_DEFINITION_CONTEXT ( 'detailed design', #76, 'design' ) ;
#193 = LINE ( 'NONE', #197, #3 ) ;
#194 = LINE ( 'NONE', #56, #165 ) ;
#195 = ORIENTED_EDGE ( 'NONE', *, *, #102, .T. ) ;
#196 = ADVANCED_FACE ( 'NONE', ( #161 ), #54, .F. ) ;
#197 = CARTESIAN_POINT ( 'NONE',  ( -5.000000000000000000, 5.000000000000000000, 106.0000000000000000 ) ) ;
#198 = EDGE_CURVE ( 'NONE', #31, #112, #43, .T. ) ;
#199 = ORIENTED_EDGE ( 'NONE', *, *, #167, .T. ) ;
#200 = VECTOR ( 'NONE', #182, 1000.000000000000000 ) ;
#201 = EDGE_LOOP ( 'NONE', ( #199, #29, #127, #169 ) ) ;
#202 = VECTOR ( 'NONE', #130, 1000.000000000000000 ) ;
ENDSEC;
END-ISO-10303-21;
