ISO-10303-21;
HEADER;
FILE_DESCRIPTION (( 'STEP AP214' ),
    '1' );
FILE_NAME ('6152015.STEP',
    '2016-06-28T13:40:08',
    ( '' ),
    ( '' ),
    'SwSTEP 2.0',
    'SolidWorks 2014',
    '' );
FILE_SCHEMA (( 'AUTOMOTIVE_DESIGN' ));
ENDSEC;

DATA;
#1 = ORIENTED_EDGE ( 'NONE', *, *, #274, .T. ) ;
#2 = EDGE_CURVE ( 'NONE', #321, #163, #302, .T. ) ;
#3 = CARTESIAN_POINT ( 'NONE',  ( -15.10205865908899600, -5.850000000000000500, 7.000000000000000000 ) ) ;
#4 = CARTESIAN_POINT ( 'NONE',  ( -16.20000000000000300, 5.849999999999998800, 7.000000000000000000 ) ) ;
#5 = DIRECTION ( 'NONE',  ( -0.008726535498373953800, -0.9999619230641713100, 0.0000000000000000000 ) ) ;
#6 = CARTESIAN_POINT ( 'NONE',  ( -16.20000000000000300, 5.849999999999998800, 7.000000000000000000 ) ) ;
#7 = AXIS2_PLACEMENT_3D ( 'NONE', #89, #315, #60 ) ;
#8 = CARTESIAN_POINT ( 'NONE',  ( -16.20000000000000300, 5.849999999999998800, -7.000000000000000000 ) ) ;
#9 = EDGE_LOOP ( 'NONE', ( #134, #82, #271, #58 ) ) ;
#10 = EDGE_CURVE ( 'NONE', #187, #163, #77, .T. ) ;
#11 = CARTESIAN_POINT ( 'NONE',  ( -16.30210435315187900, -5.850000000000000500, 7.000000000000000000 ) ) ;
#12 = EDGE_LOOP ( 'NONE', ( #30, #279, #120, #262 ) ) ;
#13 = CARTESIAN_POINT ( 'NONE',  ( -16.20000000000000300, 5.849999999999998800, 7.000000000000000000 ) ) ;
#14 = EDGE_CURVE ( 'NONE', #228, #321, #326, .T. ) ;
#15 = CARTESIAN_POINT ( 'NONE',  ( -15.01042654728602900, 4.649999999999998600, 7.000000000000000000 ) ) ;
#16 = EDGE_LOOP ( 'NONE', ( #129, #101, #242, #63 ) ) ;
#17 = VECTOR ( 'NONE', #171, 1000.000000000000000 ) ;
#18 = DIRECTION ( 'NONE',  ( 1.000000000000000000, -0.0000000000000000000, -0.0000000000000000000 ) ) ;
#19 = DIRECTION ( 'NONE',  ( 0.0000000000000000000, 0.9999619230641713100, 0.008726535498373953800 ) ) ;
#20 = FACE_OUTER_BOUND ( 'NONE', #227, .T. ) ;
#21 = ORIENTED_EDGE ( 'NONE', *, *, #250, .T. ) ;
#22 = CARTESIAN_POINT ( 'NONE',  ( 16.30210435315187600, -5.850000000000000500, 7.102104353151878200 ) ) ;
#23 = CARTESIAN_POINT ( 'NONE',  ( 15.01042654728602200, 4.649999999999998600, 7.010472241348910700 ) ) ;
#24 = ORIENTED_EDGE ( 'NONE', *, *, #102, .T. ) ;
#25 = ORIENTED_EDGE ( 'NONE', *, *, #41, .T. ) ;
#26 = DIRECTION ( 'NONE',  ( -0.008726535498373953800, -0.9999619230641713100, 0.0000000000000000000 ) ) ;
#27 = SURFACE_STYLE_USAGE ( .BOTH. , #45 ) ;
#28 = EDGE_CURVE ( 'NONE', #277, #84, #197, .T. ) ;
#29 = FACE_OUTER_BOUND ( 'NONE', #90, .T. ) ;
#30 = ORIENTED_EDGE ( 'NONE', *, *, #239, .F. ) ;
#31 = ORIENTED_EDGE ( 'NONE', *, *, #288, .F. ) ;
#32 = DIRECTION ( 'NONE',  ( 0.0000000000000000000, -1.000000000000000000, 0.0000000000000000000 ) ) ;
#33 = LINE ( 'NONE', #135, #57 ) ;
#34 = ORIENTED_EDGE ( 'NONE', *, *, #14, .F. ) ;
#35 = DIRECTION ( 'NONE',  ( -0.0000000000000000000, 0.0000000000000000000, -1.000000000000000000 ) ) ;
#36 = DIRECTION ( 'NONE',  ( 0.0000000000000000000, -0.0000000000000000000, -1.000000000000000000 ) ) ;
#37 = SURFACE_STYLE_FILL_AREA ( #320 ) ;
#38 = FACE_OUTER_BOUND ( 'NONE', #9, .T. ) ;
#39 = CARTESIAN_POINT ( 'NONE',  ( 16.30210435315187200, -5.850000000000000500, 7.000000000000000000 ) ) ;
#40 = ORIENTED_EDGE ( 'NONE', *, *, #130, .F. ) ;
#41 = EDGE_CURVE ( 'NONE', #299, #321, #33, .T. ) ;
#42 = DIRECTION ( 'NONE',  ( 1.000000000000000000, -0.0000000000000000000, -0.0000000000000000000 ) ) ;
#43 = SHAPE_DEFINITION_REPRESENTATION ( #303, #106 ) ;
#44 = ADVANCED_FACE ( 'NONE', ( #54 ), #334, .F. ) ;
#45 = SURFACE_SIDE_STYLE ('',( #37 ) ) ;
#46 = VERTEX_POINT ( 'NONE', #176 ) ;
#47 = FACE_OUTER_BOUND ( 'NONE', #236, .T. ) ;
#48 = ADVANCED_FACE ( 'NONE', ( #38 ), #309, .T. ) ;
#49 = DIRECTION ( 'NONE',  ( -1.000000000000000000, -0.0000000000000000000, -0.0000000000000000000 ) ) ;
#50 = LINE ( 'NONE', #317, #17 ) ;
#51 = ORIENTED_EDGE ( 'NONE', *, *, #207, .T. ) ;
#52 = PRODUCT_DEFINITION ( 'UNKNOWN', '', #254, #209 ) ;
#53 = PLANE ( 'NONE',  #161 ) ;
#54 = FACE_OUTER_BOUND ( 'NONE', #324, .T. ) ;
#55 = EDGE_CURVE ( 'NONE', #84, #228, #64, .T. ) ;
#56 = CARTESIAN_POINT ( 'NONE',  ( -15.00004568536423300, 5.839528954797400800, -7.000091379427114900 ) ) ;
#57 = VECTOR ( 'NONE', #193, 1000.000000000000000 ) ;
#58 = ORIENTED_EDGE ( 'NONE', *, *, #10, .T. ) ;
#59 = UNCERTAINTY_MEASURE_WITH_UNIT (LENGTH_MEASURE( 1.000000000000000100E-005 ), #223, 'distance_accuracy_value', 'NONE');
#60 = DIRECTION ( 'NONE',  ( 0.0000000000000000000, -0.0000000000000000000, 1.000000000000000000 ) ) ;
#61 = APPLICATION_CONTEXT ( 'automotive_design' ) ;
#62 =( GEOMETRIC_REPRESENTATION_CONTEXT ( 3 ) GLOBAL_UNCERTAINTY_ASSIGNED_CONTEXT ( ( #331 ) ) GLOBAL_UNIT_ASSIGNED_CONTEXT ( ( #178, #131, #158 ) ) REPRESENTATION_CONTEXT ( 'NONE', 'WORKASPACE' ) );
#63 = ORIENTED_EDGE ( 'NONE', *, *, #81, .T. ) ;
#64 = LINE ( 'NONE', #39, #311 ) ;
#65 = CARTESIAN_POINT ( 'NONE',  ( -16.20000000000000300, -5.850000000000000500, -7.102104353151878200 ) ) ;
#66 = EDGE_CURVE ( 'NONE', #157, #234, #312, .T. ) ;
#67 = LINE ( 'NONE', #65, #266 ) ;
#68 = ORIENTED_EDGE ( 'NONE', *, *, #206, .F. ) ;
#69 = DIRECTION ( 'NONE',  ( 0.0000000000000000000, 0.0000000000000000000, 1.000000000000000000 ) ) ;
#70 = CARTESIAN_POINT ( 'NONE',  ( -16.20000000000000300, 5.849999999999998800, 7.000000000000000000 ) ) ;
#71 = STYLED_ITEM ( 'NONE', ( #140 ), #106 ) ;
#72 = ORIENTED_EDGE ( 'NONE', *, *, #153, .T. ) ;
#73 = ORIENTED_EDGE ( 'NONE', *, *, #125, .T. ) ;
#74 = AXIS2_PLACEMENT_3D ( 'NONE', #4, #270, #329 ) ;
#75 = DIRECTION ( 'NONE',  ( -0.0000000000000000000, -0.0000000000000000000, -1.000000000000000000 ) ) ;
#76 = EDGE_CURVE ( 'NONE', #157, #160, #259, .T. ) ;
#77 = LINE ( 'NONE', #253, #290 ) ;
#78 =( GEOMETRIC_REPRESENTATION_CONTEXT ( 3 ) GLOBAL_UNCERTAINTY_ASSIGNED_CONTEXT ( ( #249 ) ) GLOBAL_UNIT_ASSIGNED_CONTEXT ( ( #145, #112, #285 ) ) REPRESENTATION_CONTEXT ( 'NONE', 'WORKASPACE' ) );
#79 = ADVANCED_FACE ( 'NONE', ( #132 ), #332, .F. ) ;
#80 = DIRECTION ( 'NONE',  ( 0.9999619230641713100, 0.008726535498373953800, 0.0000000000000000000 ) ) ;
#81 = EDGE_CURVE ( 'NONE', #234, #198, #146, .T. ) ;
#82 = ORIENTED_EDGE ( 'NONE', *, *, #127, .F. ) ;
#83 = LINE ( 'NONE', #56, #307 ) ;
#84 = VERTEX_POINT ( 'NONE', #22 ) ;
#85 = DIRECTION ( 'NONE',  ( -0.0000000000000000000, 0.0000000000000000000, -1.000000000000000000 ) ) ;
#86 = AXIS2_PLACEMENT_3D ( 'NONE', #172, #294, #93 ) ;
#87 = CARTESIAN_POINT ( 'NONE',  ( 14.99757853477725400, 6.122236410224001400, 6.997624228840145100 ) ) ;
#88 = FACE_OUTER_BOUND ( 'NONE', #293, .T. ) ;
#89 = CARTESIAN_POINT ( 'NONE',  ( -16.20000000000000300, -5.850000000000000500, 7.000000000000000000 ) ) ;
#90 = EDGE_LOOP ( 'NONE', ( #226, #215, #122, #304 ) ) ;
#91 = CARTESIAN_POINT ( 'NONE',  ( 15.10205865908898900, -5.850000000000000500, -7.102104353151878200 ) ) ;
#92 = CARTESIAN_POINT ( 'NONE',  ( 14.99757853477725400, 6.122236410224001400, -6.997624228840145100 ) ) ;
#93 = DIRECTION ( 'NONE',  ( 0.0000000000000000000, -0.0000000000000000000, 1.000000000000000000 ) ) ;
#94 = VECTOR ( 'NONE', #230, 1000.000000000000000 ) ;
#95 = EDGE_LOOP ( 'NONE', ( #185, #287, #175, #96 ) ) ;
#96 = ORIENTED_EDGE ( 'NONE', *, *, #55, .T. ) ;
#97 = AXIS2_PLACEMENT_3D ( 'NONE', #110, #180, #5 ) ;
#98 = EDGE_CURVE ( 'NONE', #277, #157, #111, .T. ) ;
#99 = ORIENTED_EDGE ( 'NONE', *, *, #98, .F. ) ;
#100 = ADVANCED_FACE ( 'NONE', ( #126 ), #53, .T. ) ;
#101 = ORIENTED_EDGE ( 'NONE', *, *, #76, .F. ) ;
#102 = EDGE_CURVE ( 'NONE', #220, #228, #169, .T. ) ;
#103 = ORIENTED_EDGE ( 'NONE', *, *, #239, .T. ) ;
#104 = AXIS2_PLACEMENT_3D ( 'NONE', #184, #80, #199 ) ;
#105 = PLANE ( 'NONE',  #104 ) ;
#106 = ADVANCED_BREP_SHAPE_REPRESENTATION ( '6152015', ( #328, #211 ), #162 ) ;
#107 = VECTOR ( 'NONE', #273, 1000.000000000000000 ) ;
#108 = ORIENTED_EDGE ( 'NONE', *, *, #201, .T. ) ;
#109 = CARTESIAN_POINT ( 'NONE',  ( 16.19999999999999600, 5.849999999999998800, 7.000000000000000000 ) ) ;
#110 = CARTESIAN_POINT ( 'NONE',  ( -16.20000000000000300, 5.849999999999998800, 7.000000000000000000 ) ) ;
#111 = LINE ( 'NONE', #87, #323 ) ;
#112 =( NAMED_UNIT ( * ) PLANE_ANGLE_UNIT ( ) SI_UNIT ( $, .RADIAN. ) );
#113 = DIRECTION ( 'NONE',  ( 0.0000000000000000000, -0.0000000000000000000, -1.000000000000000000 ) ) ;
#114 = EDGE_CURVE ( 'NONE', #163, #225, #195, .T. ) ;
#115 = ORIENTED_EDGE ( 'NONE', *, *, #28, .F. ) ;
#116 = SURFACE_SIDE_STYLE ('',( #205 ) ) ;
#117 = CARTESIAN_POINT ( 'NONE',  ( -16.20000000000000300, 4.649999999999998600, 7.010472241348910700 ) ) ;
#118 = APPLICATION_CONTEXT ( 'automotive_design' ) ;
#119 = CARTESIAN_POINT ( 'NONE',  ( -15.01042654728602900, 4.649999999999998600, -7.010472241348910700 ) ) ;
#120 = ORIENTED_EDGE ( 'NONE', *, *, #98, .T. ) ;
#121 = MECHANICAL_DESIGN_GEOMETRIC_PRESENTATION_REPRESENTATION (  '', ( #183 ), #78 ) ;
#122 = ORIENTED_EDGE ( 'NONE', *, *, #127, .T. ) ;
#123 = VECTOR ( 'NONE', #42, 1000.000000000000000 ) ;
#124 = CARTESIAN_POINT ( 'NONE',  ( -16.20000000000000300, -5.850000000000000500, 7.102104353151878200 ) ) ;
#125 = EDGE_CURVE ( 'NONE', #160, #198, #147, .T. ) ;
#126 = FACE_OUTER_BOUND ( 'NONE', #16, .T. ) ;
#127 = EDGE_CURVE ( 'NONE', #46, #225, #181, .T. ) ;
#128 = DIRECTION ( 'NONE',  ( -0.0000000000000000000, -0.0000000000000000000, -1.000000000000000000 ) ) ;
#129 = ORIENTED_EDGE ( 'NONE', *, *, #125, .F. ) ;
#130 = EDGE_CURVE ( 'NONE', #225, #308, #67, .T. ) ;
#131 =( NAMED_UNIT ( * ) PLANE_ANGLE_UNIT ( ) SI_UNIT ( $, .RADIAN. ) );
#132 = FACE_OUTER_BOUND ( 'NONE', #280, .T. ) ;
#133 = PRODUCT_RELATED_PRODUCT_CATEGORY ( 'part', '', ( #137 ) ) ;
#134 = ORIENTED_EDGE ( 'NONE', *, *, #114, .T. ) ;
#135 = CARTESIAN_POINT ( 'NONE',  ( 16.19999999999999600, 5.849999999999998800, 7.000000000000000000 ) ) ;
#136 = DIRECTION ( 'NONE',  ( -1.000000000000000000, 0.0000000000000000000, 0.0000000000000000000 ) ) ;
#137 = PRODUCT ( '6152015', '6152015', '', ( #261 ) ) ;
#138 = DIRECTION ( 'NONE',  ( 0.9999619230641713100, 0.008726535498373953800, 0.0000000000000000000 ) ) ;
#139 = DIRECTION ( 'NONE',  ( -1.000000000000000000, -0.0000000000000000000, 0.0000000000000000000 ) ) ;
#140 = PRESENTATION_STYLE_ASSIGNMENT (( #27 ) ) ;
#141 = ORIENTED_EDGE ( 'NONE', *, *, #66, .F. ) ;
#142 = CARTESIAN_POINT ( 'NONE',  ( -16.20000000000000300, 5.849999999999998800, -7.000000000000000000 ) ) ;
#143 = VECTOR ( 'NONE', #85, 1000.000000000000000 ) ;
#144 = AXIS2_PLACEMENT_3D ( 'NONE', #149, #297, #26 ) ;
#145 =( LENGTH_UNIT ( ) NAMED_UNIT ( * ) SI_UNIT ( .MILLI., .METRE. ) );
#146 = LINE ( 'NONE', #15, #174 ) ;
#147 = LINE ( 'NONE', #243, #152 ) ;
#148 = CARTESIAN_POINT ( 'NONE',  ( -16.20000000000000300, 5.849999999999998800, -7.000000000000000000 ) ) ;
#149 = CARTESIAN_POINT ( 'NONE',  ( -15.00004569232299700, 5.839528157401949700, 7.000000000000000000 ) ) ;
#150 = CARTESIAN_POINT ( 'NONE',  ( -16.30210435315187900, -5.850000000000000500, -7.102104353151878200 ) ) ;
#151 = ORIENTED_EDGE ( 'NONE', *, *, #10, .F. ) ;
#152 = VECTOR ( 'NONE', #136, 1000.000000000000000 ) ;
#153 = EDGE_CURVE ( 'NONE', #234, #235, #316, .T. ) ;
#154 = ORIENTED_EDGE ( 'NONE', *, *, #224, .T. ) ;
#155 = ADVANCED_FACE ( 'NONE', ( #194 ), #217, .F. ) ;
#156 = LINE ( 'NONE', #214, #222 ) ;
#157 = VERTEX_POINT ( 'NONE', #23 ) ;
#158 =( NAMED_UNIT ( * ) SI_UNIT ( $, .STERADIAN. ) SOLID_ANGLE_UNIT ( ) );
#159 = DIRECTION ( 'NONE',  ( -0.008726203243944236400, -0.9999238504775704900, 0.008726203243944236400 ) ) ;
#160 = VERTEX_POINT ( 'NONE', #265 ) ;
#161 = AXIS2_PLACEMENT_3D ( 'NONE', #168, #32, #36 ) ;
#162 =( GEOMETRIC_REPRESENTATION_CONTEXT ( 3 ) GLOBAL_UNCERTAINTY_ASSIGNED_CONTEXT ( ( #59 ) ) GLOBAL_UNIT_ASSIGNED_CONTEXT ( ( #223, #244, #164 ) ) REPRESENTATION_CONTEXT ( 'NONE', 'WORKASPACE' ) );
#163 = VERTEX_POINT ( 'NONE', #310 ) ;
#164 =( NAMED_UNIT ( * ) SI_UNIT ( $, .STERADIAN. ) SOLID_ANGLE_UNIT ( ) );
#165 = FILL_AREA_STYLE_COLOUR ( '', #219 ) ;
#166 = SURFACE_STYLE_USAGE ( .BOTH. , #116 ) ;
#167 = ADVANCED_FACE ( 'NONE', ( #29 ), #301, .F. ) ;
#168 = CARTESIAN_POINT ( 'NONE',  ( -16.20000000000000300, 4.649999999999998600, 7.000000000000000000 ) ) ;
#169 = LINE ( 'NONE', #238, #252 ) ;
#170 = ORIENTED_EDGE ( 'NONE', *, *, #114, .F. ) ;
#171 = DIRECTION ( 'NONE',  ( -0.008726203243944236400, -0.9999238504775704900, 0.008726203243944236400 ) ) ;
#172 = CARTESIAN_POINT ( 'NONE',  ( -16.20000000000000300, -5.850000000000000500, 7.000000000000000000 ) ) ;
#173 = DIRECTION ( 'NONE',  ( 1.000000000000000000, 0.0000000000000000000, 0.0000000000000000000 ) ) ;
#174 = VECTOR ( 'NONE', #300, 1000.000000000000000 ) ;
#175 = ORIENTED_EDGE ( 'NONE', *, *, #201, .F. ) ;
#176 = CARTESIAN_POINT ( 'NONE',  ( -16.30210435315187900, -5.850000000000000500, 7.102104353151878200 ) ) ;
#177 = CARTESIAN_POINT ( 'NONE',  ( 16.19999999999999600, 5.849999999999998800, -7.000000000000000000 ) ) ;
#178 =( LENGTH_UNIT ( ) NAMED_UNIT ( * ) SI_UNIT ( .MILLI., .METRE. ) );
#179 = COLOUR_RGB ( '',0.7529411764705882200, 0.7529411764705882200, 0.7529411764705882200 ) ;
#180 = DIRECTION ( 'NONE',  ( -0.9999619230641713100, 0.008726535498373953800, 0.0000000000000000000 ) ) ;
#181 = LINE ( 'NONE', #11, #210 ) ;
#182 = DIRECTION ( 'NONE',  ( -0.008726203243944236400, 0.9999238504775704900, 0.008726203243944236400 ) ) ;
#183 = STYLED_ITEM ( 'NONE', ( #272 ), #328 ) ;
#184 = CARTESIAN_POINT ( 'NONE',  ( 16.19999999999999600, 5.849999999999998800, 7.000000000000000000 ) ) ;
#185 = ORIENTED_EDGE ( 'NONE', *, *, #14, .T. ) ;
#186 = ORIENTED_EDGE ( 'NONE', *, *, #28, .T. ) ;
#187 = VERTEX_POINT ( 'NONE', #70 ) ;
#188 = LINE ( 'NONE', #124, #318 ) ;
#189 = VECTOR ( 'NONE', #159, 1000.000000000000000 ) ;
#190 = APPLICATION_PROTOCOL_DEFINITION ( 'draft international standard', 'automotive_design', 1998, #61 ) ;
#191 = ADVANCED_FACE ( 'NONE', ( #248 ), #105, .T. ) ;
#192 = CARTESIAN_POINT ( 'NONE',  ( -16.20000000000000300, -5.850000000000000500, 7.102104353151878200 ) ) ;
#193 = DIRECTION ( 'NONE',  ( -0.0000000000000000000, -0.0000000000000000000, -1.000000000000000000 ) ) ;
#194 = FACE_OUTER_BOUND ( 'NONE', #12, .T. ) ;
#195 = LINE ( 'NONE', #148, #213 ) ;
#196 = ADVANCED_FACE ( 'NONE', ( #20 ), #204, .F. ) ;
#197 = LINE ( 'NONE', #192, #123 ) ;
#198 = VERTEX_POINT ( 'NONE', #119 ) ;
#199 = DIRECTION ( 'NONE',  ( -0.008726535498373953800, 0.9999619230641713100, 0.0000000000000000000 ) ) ;
#200 = DIRECTION ( 'NONE',  ( 0.0000000000000000000, -1.000000000000000000, 0.0000000000000000000 ) ) ;
#201 = EDGE_CURVE ( 'NONE', #84, #299, #251, .T. ) ;
#202 = CARTESIAN_POINT ( 'NONE',  ( -15.01042654728602900, 4.649999999999998600, 7.010472241348910700 ) ) ;
#203 = ORIENTED_EDGE ( 'NONE', *, *, #102, .F. ) ;
#204 = PLANE ( 'NONE',  #275 ) ;
#205 = SURFACE_STYLE_FILL_AREA ( #314 ) ;
#206 = EDGE_CURVE ( 'NONE', #299, #187, #296, .T. ) ;
#207 = EDGE_CURVE ( 'NONE', #46, #235, #188, .T. ) ;
#208 = CARTESIAN_POINT ( 'NONE',  ( 15.10205865908898900, -5.850000000000000500, 7.102104353151878200 ) ) ;
#209 = PRODUCT_DEFINITION_CONTEXT ( 'detailed design', #61, 'design' ) ;
#210 = VECTOR ( 'NONE', #35, 1000.000000000000000 ) ;
#211 = AXIS2_PLACEMENT_3D ( 'NONE', #313, #69, #173 ) ;
#212 = ORIENTED_EDGE ( 'NONE', *, *, #55, .F. ) ;
#213 = VECTOR ( 'NONE', #327, 1000.000000000000000 ) ;
#214 = CARTESIAN_POINT ( 'NONE',  ( 15.10205865908898900, -5.850000000000000500, 7.000000000000000000 ) ) ;
#215 = ORIENTED_EDGE ( 'NONE', *, *, #207, .F. ) ;
#216 = DIRECTION ( 'NONE',  ( 1.000000000000000000, -0.0000000000000000000, 0.0000000000000000000 ) ) ;
#217 = PLANE ( 'NONE',  #232 ) ;
#218 = ORIENTED_EDGE ( 'NONE', *, *, #288, .T. ) ;
#219 = COLOUR_RGB ( '',0.7529411764705882200, 0.7529411764705882200, 0.7529411764705882200 ) ;
#220 = VERTEX_POINT ( 'NONE', #91 ) ;
#221 = CARTESIAN_POINT ( 'NONE',  ( 15.01042654728602200, 4.649999999999998600, 7.000000000000000000 ) ) ;
#222 = VECTOR ( 'NONE', #128, 1000.000000000000000 ) ;
#223 =( LENGTH_UNIT ( ) NAMED_UNIT ( * ) SI_UNIT ( .MILLI., .METRE. ) );
#224 = EDGE_CURVE ( 'NONE', #187, #46, #50, .T. ) ;
#225 = VERTEX_POINT ( 'NONE', #150 ) ;
#226 = ORIENTED_EDGE ( 'NONE', *, *, #250, .F. ) ;
#227 = EDGE_LOOP ( 'NONE', ( #231, #151, #68, #25 ) ) ;
#228 = VERTEX_POINT ( 'NONE', #246 ) ;
#229 = DIRECTION ( 'NONE',  ( -0.008726535498373953800, 0.9999619230641713100, 0.0000000000000000000 ) ) ;
#230 = DIRECTION ( 'NONE',  ( -0.008726203243944236400, 0.9999238504775704900, 0.008726203243944236400 ) ) ;
#231 = ORIENTED_EDGE ( 'NONE', *, *, #2, .T. ) ;
#232 = AXIS2_PLACEMENT_3D ( 'NONE', #283, #138, #229 ) ;
#233 = PLANE ( 'NONE',  #281 ) ;
#234 = VERTEX_POINT ( 'NONE', #202 ) ;
#235 = VERTEX_POINT ( 'NONE', #268 ) ;
#236 = EDGE_LOOP ( 'NONE', ( #99, #186, #108, #291, #154, #51, #286, #141 ) ) ;
#237 = PRESENTATION_LAYER_ASSIGNMENT (  '', '', ( #183 ) ) ;
#238 = CARTESIAN_POINT ( 'NONE',  ( -16.20000000000000300, -5.850000000000000500, -7.102104353151878200 ) ) ;
#239 = EDGE_CURVE ( 'NONE', #220, #160, #257, .T. ) ;
#240 = LINE ( 'NONE', #3, #143 ) ;
#241 = CARTESIAN_POINT ( 'NONE',  ( 16.19753284941302200, 6.132707455426598600, 6.997532849413030200 ) ) ;
#242 = ORIENTED_EDGE ( 'NONE', *, *, #66, .T. ) ;
#243 = CARTESIAN_POINT ( 'NONE',  ( -16.20000000000000300, 4.649999999999998600, -7.010472241348910700 ) ) ;
#244 =( NAMED_UNIT ( * ) PLANE_ANGLE_UNIT ( ) SI_UNIT ( $, .RADIAN. ) );
#245 = VECTOR ( 'NONE', #182, 1000.000000000000000 ) ;
#246 = CARTESIAN_POINT ( 'NONE',  ( 16.30210435315187600, -5.850000000000000500, -7.102104353151878200 ) ) ;
#247 = PLANE ( 'NONE',  #74 ) ;
#248 = FACE_OUTER_BOUND ( 'NONE', #95, .T. ) ;
#249 = UNCERTAINTY_MEASURE_WITH_UNIT (LENGTH_MEASURE( 1.000000000000000100E-005 ), #145, 'distance_accuracy_value', 'NONE');
#250 = EDGE_CURVE ( 'NONE', #235, #308, #240, .T. ) ;
#251 = LINE ( 'NONE', #241, #292 ) ;
#252 = VECTOR ( 'NONE', #325, 1000.000000000000000 ) ;
#253 = CARTESIAN_POINT ( 'NONE',  ( -16.20000000000000300, 5.849999999999998800, 7.000000000000000000 ) ) ;
#254 = PRODUCT_DEFINITION_FORMATION_WITH_SPECIFIED_SOURCE ( 'ANY', '', #137, .NOT_KNOWN. ) ;
#255 = FILL_AREA_STYLE_COLOUR ( '', #179 ) ;
#256 = ADVANCED_FACE ( 'NONE', ( #47 ), #247, .T. ) ;
#257 = LINE ( 'NONE', #92, #94 ) ;
#258 = CARTESIAN_POINT ( 'NONE',  ( -15.10205865908899600, -5.850000000000000500, -7.102104353151878200 ) ) ;
#259 = LINE ( 'NONE', #221, #306 ) ;
#260 = ORIENTED_EDGE ( 'NONE', *, *, #81, .F. ) ;
#261 = PRODUCT_CONTEXT ( 'NONE', #118, 'mechanical' ) ;
#262 = ORIENTED_EDGE ( 'NONE', *, *, #76, .T. ) ;
#263 = APPLICATION_PROTOCOL_DEFINITION ( 'draft international standard', 'automotive_design', 1998, #118 ) ;
#264 = DIRECTION ( 'NONE',  ( 0.0000000000000000000, 0.008726535498373953800, -0.9999619230641713100 ) ) ;
#265 = CARTESIAN_POINT ( 'NONE',  ( 15.01042654728602200, 4.649999999999998600, -7.010472241348910700 ) ) ;
#266 = VECTOR ( 'NONE', #216, 1000.000000000000000 ) ;
#267 = CLOSED_SHELL ( 'NONE', ( #167, #256, #322, #191, #196, #48, #44, #155, #100, #79 ) ) ;
#268 = CARTESIAN_POINT ( 'NONE',  ( -15.10205865908899600, -5.850000000000000500, 7.102104353151878200 ) ) ;
#269 = DIRECTION ( 'NONE',  ( -0.008726203243944236400, -0.9999238504775704900, -0.008726203243944236400 ) ) ;
#270 = DIRECTION ( 'NONE',  ( 0.0000000000000000000, 0.008726535498373953800, 0.9999619230641713100 ) ) ;
#271 = ORIENTED_EDGE ( 'NONE', *, *, #224, .F. ) ;
#272 = PRESENTATION_STYLE_ASSIGNMENT (( #166 ) ) ;
#273 = DIRECTION ( 'NONE',  ( -1.000000000000000000, -0.0000000000000000000, -0.0000000000000000000 ) ) ;
#274 = EDGE_CURVE ( 'NONE', #277, #220, #156, .T. ) ;
#275 = AXIS2_PLACEMENT_3D ( 'NONE', #13, #200, #113 ) ;
#276 = DIRECTION ( 'NONE',  ( -0.008726203243944236400, 0.9999238504775704900, -0.008726203243944236400 ) ) ;
#277 = VERTEX_POINT ( 'NONE', #208 ) ;
#278 = CARTESIAN_POINT ( 'NONE',  ( 16.19753284941302200, 6.132707455426598600, -6.997532849413030200 ) ) ;
#279 = ORIENTED_EDGE ( 'NONE', *, *, #274, .F. ) ;
#280 = EDGE_LOOP ( 'NONE', ( #31, #260, #72, #21 ) ) ;
#281 = AXIS2_PLACEMENT_3D ( 'NONE', #142, #264, #19 ) ;
#282 = VECTOR ( 'NONE', #49, 1000.000000000000000 ) ;
#283 = CARTESIAN_POINT ( 'NONE',  ( 15.00004569232299000, 5.839528157401949700, 7.000000000000000000 ) ) ;
#284 = PRESENTATION_LAYER_ASSIGNMENT (  '', '', ( #71 ) ) ;
#285 =( NAMED_UNIT ( * ) SI_UNIT ( $, .STERADIAN. ) SOLID_ANGLE_UNIT ( ) );
#286 = ORIENTED_EDGE ( 'NONE', *, *, #153, .F. ) ;
#287 = ORIENTED_EDGE ( 'NONE', *, *, #41, .F. ) ;
#288 = EDGE_CURVE ( 'NONE', #198, #308, #83, .T. ) ;
#289 = DIRECTION ( 'NONE',  ( 0.0000000000000000000, -0.0000000000000000000, -1.000000000000000000 ) ) ;
#290 = VECTOR ( 'NONE', #75, 1000.000000000000000 ) ;
#291 = ORIENTED_EDGE ( 'NONE', *, *, #206, .T. ) ;
#292 = VECTOR ( 'NONE', #276, 1000.000000000000000 ) ;
#293 = EDGE_LOOP ( 'NONE', ( #203, #103, #73, #218, #40, #170, #330, #34 ) ) ;
#294 = DIRECTION ( 'NONE',  ( 0.0000000000000000000, 1.000000000000000000, 0.0000000000000000000 ) ) ;
#295 = DIRECTION ( 'NONE',  ( -0.0000000000000000000, -0.0000000000000000000, -1.000000000000000000 ) ) ;
#296 = LINE ( 'NONE', #6, #107 ) ;
#297 = DIRECTION ( 'NONE',  ( -0.9999619230641713100, 0.008726535498373953800, 0.0000000000000000000 ) ) ;
#298 = DIRECTION ( 'NONE',  ( -0.008726203243944236400, 0.9999238504775704900, -0.008726203243944236400 ) ) ;
#299 = VERTEX_POINT ( 'NONE', #109 ) ;
#300 = DIRECTION ( 'NONE',  ( -0.0000000000000000000, -0.0000000000000000000, -1.000000000000000000 ) ) ;
#301 = PLANE ( 'NONE',  #7 ) ;
#302 = LINE ( 'NONE', #8, #282 ) ;
#303 = PRODUCT_DEFINITION_SHAPE ( 'NONE', 'NONE',  #52 ) ;
#304 = ORIENTED_EDGE ( 'NONE', *, *, #130, .T. ) ;
#305 = CARTESIAN_POINT ( 'NONE',  ( -15.00004568536423300, 5.839528954797400800, 7.000091379427114900 ) ) ;
#306 = VECTOR ( 'NONE', #289, 1000.000000000000000 ) ;
#307 = VECTOR ( 'NONE', #269, 1000.000000000000000 ) ;
#308 = VERTEX_POINT ( 'NONE', #258 ) ;
#309 = PLANE ( 'NONE',  #97 ) ;
#310 = CARTESIAN_POINT ( 'NONE',  ( -16.20000000000000300, 5.849999999999998800, -7.000000000000000000 ) ) ;
#311 = VECTOR ( 'NONE', #295, 1000.000000000000000 ) ;
#312 = LINE ( 'NONE', #117, #319 ) ;
#313 = CARTESIAN_POINT ( 'NONE',  ( 0.0000000000000000000, 0.0000000000000000000, 0.0000000000000000000 ) ) ;
#314 = FILL_AREA_STYLE ('',( #255 ) ) ;
#315 = DIRECTION ( 'NONE',  ( 0.0000000000000000000, 1.000000000000000000, 0.0000000000000000000 ) ) ;
#316 = LINE ( 'NONE', #305, #189 ) ;
#317 = CARTESIAN_POINT ( 'NONE',  ( -16.20000000000000300, 5.849999999999998800, 7.000000000000000000 ) ) ;
#318 = VECTOR ( 'NONE', #18, 1000.000000000000000 ) ;
#319 = VECTOR ( 'NONE', #139, 1000.000000000000000 ) ;
#320 = FILL_AREA_STYLE ('',( #165 ) ) ;
#321 = VERTEX_POINT ( 'NONE', #177 ) ;
#322 = ADVANCED_FACE ( 'NONE', ( #88 ), #233, .T. ) ;
#323 = VECTOR ( 'NONE', #298, 1000.000000000000000 ) ;
#324 = EDGE_LOOP ( 'NONE', ( #115, #1, #24, #212 ) ) ;
#325 = DIRECTION ( 'NONE',  ( 1.000000000000000000, -0.0000000000000000000, 0.0000000000000000000 ) ) ;
#326 = LINE ( 'NONE', #278, #245 ) ;
#327 = DIRECTION ( 'NONE',  ( -0.008726203243944236400, -0.9999238504775704900, -0.008726203243944236400 ) ) ;
#328 = MANIFOLD_SOLID_BREP ( 'Shell3', #267 ) ;
#329 = DIRECTION ( 'NONE',  ( 0.0000000000000000000, -0.9999619230641713100, 0.008726535498373953800 ) ) ;
#330 = ORIENTED_EDGE ( 'NONE', *, *, #2, .F. ) ;
#331 = UNCERTAINTY_MEASURE_WITH_UNIT (LENGTH_MEASURE( 1.000000000000000100E-005 ), #178, 'distance_accuracy_value', 'NONE');
#332 = PLANE ( 'NONE',  #144 ) ;
#333 = MECHANICAL_DESIGN_GEOMETRIC_PRESENTATION_REPRESENTATION (  '', ( #71 ), #62 ) ;
#334 = PLANE ( 'NONE',  #86 ) ;
ENDSEC;
END-ISO-10303-21;
