ISO-10303-21;
HEADER;
FILE_DESCRIPTION (( 'STEP AP214' ),
    '1' );
FILE_NAME ('6152031.STEP',
    '2016-06-29T06:34:50',
    ( '' ),
    ( '' ),
    'SwSTEP 2.0',
    'SolidWorks 2014',
    '' );
FILE_SCHEMA (( 'AUTOMOTIVE_DESIGN' ));
ENDSEC;

DATA;
#1 = DIRECTION ( 'NONE',  ( 1.000000000000000000, 0.0000000000000000000, 0.0000000000000000000 ) ) ;
#2 = LINE ( 'NONE', #147, #127 ) ;
#3 = DIRECTION ( 'NONE',  ( -0.0000000000000000000, -0.0000000000000000000, -1.000000000000000000 ) ) ;
#4 = ORIENTED_EDGE ( 'NONE', *, *, #317, .F. ) ;
#5 = VECTOR ( 'NONE', #37, 1000.000000000000000 ) ;
#6 = DIRECTION ( 'NONE',  ( 0.01867393750937520700, 0.9998256268259461100, -0.0000000000000000000 ) ) ;
#7 = AXIS2_PLACEMENT_3D ( 'NONE', #162, #163, #196 ) ;
#8 = PLANE ( 'NONE',  #78 ) ;
#9 = LINE ( 'NONE', #284, #214 ) ;
#10 = PLANE ( 'NONE',  #311 ) ;
#11 = EDGE_CURVE ( 'NONE', #192, #205, #308, .T. ) ;
#12 = CARTESIAN_POINT ( 'NONE',  ( -15.26983225744578800, -0.2851976241691434000, -7.000000000000000000 ) ) ;
#13 = ORIENTED_EDGE ( 'NONE', *, *, #30, .F. ) ;
#14 = SHAPE_DEFINITION_REPRESENTATION ( #229, #146 ) ;
#15 = FACE_OUTER_BOUND ( 'NONE', #123, .T. ) ;
#16 = CARTESIAN_POINT ( 'NONE',  ( -16.30073646638374300, -9.349999999999999600, 7.000000000000000000 ) ) ;
#17 = CARTESIAN_POINT ( 'NONE',  ( -16.46962300963692600, -0.3076063491803936500, -7.000000000000000000 ) ) ;
#18 = STYLED_ITEM ( 'NONE', ( #166 ), #146 ) ;
#19 = CARTESIAN_POINT ( 'NONE',  ( -16.64999999999999900, -9.349999999999999600, 7.000000000000000000 ) ) ;
#20 = ADVANCED_FACE ( 'NONE', ( #40 ), #61, .F. ) ;
#21 = CARTESIAN_POINT ( 'NONE',  ( -15.10052718208131100, -9.349999999999999600, 7.000000000000000000 ) ) ;
#22 = VERTEX_POINT ( 'NONE', #248 ) ;
#23 = ORIENTED_EDGE ( 'NONE', *, *, #129, .F. ) ;
#24 = LINE ( 'NONE', #227, #293 ) ;
#25 = PLANE ( 'NONE',  #320 ) ;
#26 = APPLICATION_PROTOCOL_DEFINITION ( 'draft international standard', 'automotive_design', 1998, #51 ) ;
#27 = APPLICATION_CONTEXT ( 'automotive_design' ) ;
#28 = ORIENTED_EDGE ( 'NONE', *, *, #83, .F. ) ;
#29 = LINE ( 'NONE', #59, #99 ) ;
#30 = EDGE_CURVE ( 'NONE', #73, #322, #29, .T. ) ;
#31 = ORIENTED_EDGE ( 'NONE', *, *, #226, .T. ) ;
#32 = PRODUCT_DEFINITION_CONTEXT ( 'detailed design', #27, 'design' ) ;
#33 = CARTESIAN_POINT ( 'NONE',  ( 16.64999999999999900, 9.349999999999999600, -7.000000000000000000 ) ) ;
#34 = PRESENTATION_STYLE_ASSIGNMENT (( #303 ) ) ;
#35 = CARTESIAN_POINT ( 'NONE',  ( 16.64999999999999900, 9.349999999999999600, 7.000000000000000000 ) ) ;
#36 = PRESENTATION_LAYER_ASSIGNMENT (  '', '', ( #18 ) ) ;
#37 = DIRECTION ( 'NONE',  ( -0.0000000000000000000, -0.0000000000000000000, -1.000000000000000000 ) ) ;
#38 = DIRECTION ( 'NONE',  ( 0.9998256268259461100, -0.01867393750937520700, 0.0000000000000000000 ) ) ;
#39 = ORIENTED_EDGE ( 'NONE', *, *, #112, .F. ) ;
#40 = FACE_OUTER_BOUND ( 'NONE', #277, .T. ) ;
#41 = AXIS2_PLACEMENT_3D ( 'NONE', #168, #161, #222 ) ;
#42 = LINE ( 'NONE', #202, #183 ) ;
#43 = UNCERTAINTY_MEASURE_WITH_UNIT (LENGTH_MEASURE( 1.000000000000000100E-005 ), #145, 'distance_accuracy_value', 'NONE');
#44 = DIRECTION ( 'NONE',  ( -1.000000000000000000, 0.0000000000000000000, 0.0000000000000000000 ) ) ;
#45 = DIRECTION ( 'NONE',  ( 1.000000000000000000, 0.0000000000000000000, 0.0000000000000000000 ) ) ;
#46 = DIRECTION ( 'NONE',  ( 0.01867393750937520700, 0.9998256268259461100, -0.0000000000000000000 ) ) ;
#47 = ORIENTED_EDGE ( 'NONE', *, *, #170, .T. ) ;
#48 = EDGE_CURVE ( 'NONE', #246, #73, #298, .T. ) ;
#49 = CARTESIAN_POINT ( 'NONE',  ( -15.26983225744578800, -0.2851976241691434000, 7.000000000000000000 ) ) ;
#50 = DIRECTION ( 'NONE',  ( 0.0000000000000000000, -0.0000000000000000000, -1.000000000000000000 ) ) ;
#51 = APPLICATION_CONTEXT ( 'automotive_design' ) ;
#52 = LINE ( 'NONE', #17, #108 ) ;
#53 = MECHANICAL_DESIGN_GEOMETRIC_PRESENTATION_REPRESENTATION (  '', ( #18 ), #69 ) ;
#54 = LINE ( 'NONE', #102, #267 ) ;
#55 = EDGE_LOOP ( 'NONE', ( #316, #148, #82, #156 ) ) ;
#56 = ORIENTED_EDGE ( 'NONE', *, *, #285, .T. ) ;
#57 = ORIENTED_EDGE ( 'NONE', *, *, #64, .T. ) ;
#58 = LINE ( 'NONE', #174, #318 ) ;
#59 = CARTESIAN_POINT ( 'NONE',  ( -16.64999999999999900, 9.349999999999999600, 7.000000000000000000 ) ) ;
#60 = VECTOR ( 'NONE', #122, 1000.000000000000100 ) ;
#61 = PLANE ( 'NONE',  #279 ) ;
#62 = VERTEX_POINT ( 'NONE', #86 ) ;
#63 = UNCERTAINTY_MEASURE_WITH_UNIT (LENGTH_MEASURE( 1.000000000000000100E-005 ), #312, 'distance_accuracy_value', 'NONE');
#64 = EDGE_CURVE ( 'NONE', #151, #110, #24, .T. ) ;
#65 = VERTEX_POINT ( 'NONE', #299 ) ;
#66 = VECTOR ( 'NONE', #300, 1000.000000000000000 ) ;
#67 = ORIENTED_EDGE ( 'NONE', *, *, #253, .F. ) ;
#68 = CARTESIAN_POINT ( 'NONE',  ( 15.42737808252433000, 8.149999999999998600, -7.000000000000000000 ) ) ;
#69 =( GEOMETRIC_REPRESENTATION_CONTEXT ( 3 ) GLOBAL_UNCERTAINTY_ASSIGNED_CONTEXT ( ( #307 ) ) GLOBAL_UNIT_ASSIGNED_CONTEXT ( ( #103, #290, #126 ) ) REPRESENTATION_CONTEXT ( 'NONE', 'WORKASPACE' ) );
#70 = DIRECTION ( 'NONE',  ( 0.01867393750937520700, 0.9998256268259461100, 0.0000000000000000000 ) ) ;
#71 = LINE ( 'NONE', #309, #274 ) ;
#72 = ADVANCED_FACE ( 'NONE', ( #225 ), #10, .T. ) ;
#73 = VERTEX_POINT ( 'NONE', #106 ) ;
#74 = DIRECTION ( 'NONE',  ( 0.01867393750937520700, -0.9998256268259461100, 0.0000000000000000000 ) ) ;
#75 = DIRECTION ( 'NONE',  ( -0.9998256268259461100, -0.01867393750937520700, 0.0000000000000000000 ) ) ;
#76 = VERTEX_POINT ( 'NONE', #188 ) ;
#77 = VECTOR ( 'NONE', #195, 1000.000000000000000 ) ;
#78 = AXIS2_PLACEMENT_3D ( 'NONE', #35, #231, #70 ) ;
#79 = SURFACE_SIDE_STYLE ('',( #245 ) ) ;
#80 = LINE ( 'NONE', #120, #221 ) ;
#81 = DIRECTION ( 'NONE',  ( 0.01867393750937520700, -0.9998256268259461100, -0.0000000000000000000 ) ) ;
#82 = ORIENTED_EDGE ( 'NONE', *, *, #150, .T. ) ;
#83 = EDGE_CURVE ( 'NONE', #151, #246, #239, .T. ) ;
#84 = ORIENTED_EDGE ( 'NONE', *, *, #268, .T. ) ;
#85 = LINE ( 'NONE', #190, #167 ) ;
#86 = CARTESIAN_POINT ( 'NONE',  ( -15.42737808252433000, 8.149999999999998600, -7.000000000000000000 ) ) ;
#87 = VERTEX_POINT ( 'NONE', #33 ) ;
#88 = VECTOR ( 'NONE', #89, 1000.000000000000000 ) ;
#89 = DIRECTION ( 'NONE',  ( 1.000000000000000000, 0.0000000000000000000, 0.0000000000000000000 ) ) ;
#90 = ORIENTED_EDGE ( 'NONE', *, *, #186, .T. ) ;
#91 = STYLED_ITEM ( 'NONE', ( #34 ), #228 ) ;
#92 = DIRECTION ( 'NONE',  ( 0.0000000000000000000, -0.0000000000000000000, 1.000000000000000000 ) ) ;
#93 = EDGE_LOOP ( 'NONE', ( #200, #296, #264, #31 ) ) ;
#94 = ADVANCED_FACE ( 'NONE', ( #15 ), #138, .F. ) ;
#95 = PLANE ( 'NONE',  #219 ) ;
#96 = CARTESIAN_POINT ( 'NONE',  ( -16.30073646638374300, -9.349999999999999600, 7.000000000000000000 ) ) ;
#97 = ORIENTED_EDGE ( 'NONE', *, *, #216, .F. ) ;
#98 = DIRECTION ( 'NONE',  ( 0.01867393750937520700, 0.9998256268259461100, -0.0000000000000000000 ) ) ;
#99 = VECTOR ( 'NONE', #275, 1000.000000000000000 ) ;
#100 = EDGE_CURVE ( 'NONE', #151, #192, #85, .T. ) ;
#101 = DIRECTION ( 'NONE',  ( -1.000000000000000000, 0.0000000000000000000, -0.0000000000000000000 ) ) ;
#102 = CARTESIAN_POINT ( 'NONE',  ( -16.46962300963692600, -0.3076063491803936500, 7.000000000000000000 ) ) ;
#103 =( LENGTH_UNIT ( ) NAMED_UNIT ( * ) SI_UNIT ( .MILLI., .METRE. ) );
#104 = SURFACE_STYLE_FILL_AREA ( #282 ) ;
#105 = ORIENTED_EDGE ( 'NONE', *, *, #193, .F. ) ;
#106 = CARTESIAN_POINT ( 'NONE',  ( 16.64999999999999900, 9.349999999999999600, 7.000000000000000000 ) ) ;
#107 = AXIS2_PLACEMENT_3D ( 'NONE', #201, #257, #92 ) ;
#108 = VECTOR ( 'NONE', #324, 1000.000000000000100 ) ;
#109 = DIRECTION ( 'NONE',  ( -0.0000000000000000000, -0.0000000000000000000, -1.000000000000000000 ) ) ;
#110 = VERTEX_POINT ( 'NONE', #199 ) ;
#111 = ORIENTED_EDGE ( 'NONE', *, *, #328, .F. ) ;
#112 = EDGE_CURVE ( 'NONE', #246, #65, #140, .T. ) ;
#113 = LINE ( 'NONE', #143, #315 ) ;
#114 = CARTESIAN_POINT ( 'NONE',  ( 16.64999999999999900, 9.349999999999999600, 7.000000000000000000 ) ) ;
#115 = AXIS2_PLACEMENT_3D ( 'NONE', #241, #153, #1 ) ;
#116 = ADVANCED_FACE ( 'NONE', ( #218 ), #223, .F. ) ;
#117 = SURFACE_SIDE_STYLE ('',( #104 ) ) ;
#118 = FACE_OUTER_BOUND ( 'NONE', #185, .T. ) ;
#119 = VERTEX_POINT ( 'NONE', #171 ) ;
#120 = CARTESIAN_POINT ( 'NONE',  ( -16.64999999999999900, 9.349999999999999600, -7.000000000000000000 ) ) ;
#121 = DIRECTION ( 'NONE',  ( 1.000000000000000000, 0.0000000000000000000, 0.0000000000000000000 ) ) ;
#122 = DIRECTION ( 'NONE',  ( 0.01867393750937520700, -0.9998256268259461100, -0.0000000000000000000 ) ) ;
#123 = EDGE_LOOP ( 'NONE', ( #321, #215, #165, #269, #283, #90, #4, #297 ) ) ;
#124 = LINE ( 'NONE', #19, #187 ) ;
#125 = PRESENTATION_LAYER_ASSIGNMENT (  '', '', ( #91 ) ) ;
#126 =( NAMED_UNIT ( * ) SI_UNIT ( $, .STERADIAN. ) SOLID_ANGLE_UNIT ( ) );
#127 = VECTOR ( 'NONE', #329, 1000.000000000000000 ) ;
#128 = ORIENTED_EDGE ( 'NONE', *, *, #11, .F. ) ;
#129 = EDGE_CURVE ( 'NONE', #76, #119, #288, .T. ) ;
#130 = ORIENTED_EDGE ( 'NONE', *, *, #268, .F. ) ;
#131 = LINE ( 'NONE', #271, #332 ) ;
#132 = EDGE_LOOP ( 'NONE', ( #197, #136, #314, #209 ) ) ;
#133 = DIRECTION ( 'NONE',  ( 0.0000000000000000000, -0.0000000000000000000, -1.000000000000000000 ) ) ;
#134 = PRODUCT_DEFINITION ( 'UNKNOWN', '', #154, #32 ) ;
#135 = VECTOR ( 'NONE', #98, 1000.000000000000100 ) ;
#136 = ORIENTED_EDGE ( 'NONE', *, *, #179, .F. ) ;
#137 = CARTESIAN_POINT ( 'NONE',  ( 16.30073646638374300, -9.349999999999999600, 7.000000000000000000 ) ) ;
#138 = PLANE ( 'NONE',  #7 ) ;
#139 = EDGE_LOOP ( 'NONE', ( #256, #292, #111, #334 ) ) ;
#140 = LINE ( 'NONE', #137, #77 ) ;
#141 = MECHANICAL_DESIGN_GEOMETRIC_PRESENTATION_REPRESENTATION (  '', ( #91 ), #160 ) ;
#142 = CARTESIAN_POINT ( 'NONE',  ( 15.42737808252433000, 8.149999999999998600, 7.000000000000000000 ) ) ;
#143 = CARTESIAN_POINT ( 'NONE',  ( 16.46962300963692600, -0.3076063491803936500, -7.000000000000000000 ) ) ;
#144 = FACE_OUTER_BOUND ( 'NONE', #217, .T. ) ;
#145 =( LENGTH_UNIT ( ) NAMED_UNIT ( * ) SI_UNIT ( .MILLI., .METRE. ) );
#146 = ADVANCED_BREP_SHAPE_REPRESENTATION ( '6152031', ( #228, #115 ), #301 ) ;
#147 = CARTESIAN_POINT ( 'NONE',  ( 0.0000000000000000000, 8.149999999999998600, 7.000000000000000000 ) ) ;
#148 = ORIENTED_EDGE ( 'NONE', *, *, #186, .F. ) ;
#149 = LINE ( 'NONE', #16, #5 ) ;
#150 = EDGE_CURVE ( 'NONE', #237, #76, #149, .T. ) ;
#151 = VERTEX_POINT ( 'NONE', #250 ) ;
#152 =( NAMED_UNIT ( * ) PLANE_ANGLE_UNIT ( ) SI_UNIT ( $, .RADIAN. ) );
#153 = DIRECTION ( 'NONE',  ( 0.0000000000000000000, 0.0000000000000000000, 1.000000000000000000 ) ) ;
#154 = PRODUCT_DEFINITION_FORMATION_WITH_SPECIFIED_SOURCE ( 'ANY', '', #263, .NOT_KNOWN. ) ;
#155 = EDGE_CURVE ( 'NONE', #62, #119, #278, .T. ) ;
#156 = ORIENTED_EDGE ( 'NONE', *, *, #129, .T. ) ;
#157 = VECTOR ( 'NONE', #6, 1000.000000000000100 ) ;
#158 = ORIENTED_EDGE ( 'NONE', *, *, #64, .F. ) ;
#159 = CARTESIAN_POINT ( 'NONE',  ( 16.46962300963692600, -0.3076063491803936500, 7.000000000000000000 ) ) ;
#160 =( GEOMETRIC_REPRESENTATION_CONTEXT ( 3 ) GLOBAL_UNCERTAINTY_ASSIGNED_CONTEXT ( ( #43 ) ) GLOBAL_UNIT_ASSIGNED_CONTEXT ( ( #145, #326, #178 ) ) REPRESENTATION_CONTEXT ( 'NONE', 'WORKASPACE' ) );
#161 = DIRECTION ( 'NONE',  ( 0.0000000000000000000, 1.000000000000000000, 0.0000000000000000000 ) ) ;
#162 = CARTESIAN_POINT ( 'NONE',  ( 0.0000000000000000000, 0.0000000000000000000, 7.000000000000000000 ) ) ;
#163 = DIRECTION ( 'NONE',  ( 0.0000000000000000000, 0.0000000000000000000, -1.000000000000000000 ) ) ;
#164 = CARTESIAN_POINT ( 'NONE',  ( 15.45020924780886200, 9.372408725011249300, 7.000000000000000000 ) ) ;
#165 = ORIENTED_EDGE ( 'NONE', *, *, #48, .T. ) ;
#166 = PRESENTATION_STYLE_ASSIGNMENT (( #266 ) ) ;
#167 = VECTOR ( 'NONE', #319, 1000.000000000000100 ) ;
#168 = CARTESIAN_POINT ( 'NONE',  ( -16.64999999999999900, -9.349999999999999600, 7.000000000000000000 ) ) ;
#169 = EDGE_LOOP ( 'NONE', ( #105, #128, #224, #47 ) ) ;
#170 = EDGE_CURVE ( 'NONE', #244, #62, #131, .T. ) ;
#171 = CARTESIAN_POINT ( 'NONE',  ( -15.10052718208131100, -9.349999999999999600, -7.000000000000000000 ) ) ;
#172 = CARTESIAN_POINT ( 'NONE',  ( -16.64999999999999900, 8.149999999999998600, 7.000000000000000000 ) ) ;
#173 = FACE_OUTER_BOUND ( 'NONE', #93, .T. ) ;
#174 = CARTESIAN_POINT ( 'NONE',  ( 0.0000000000000000000, 8.149999999999998600, -7.000000000000000000 ) ) ;
#175 = CARTESIAN_POINT ( 'NONE',  ( -15.45020924780886200, 9.372408725011249300, 7.000000000000000000 ) ) ;
#176 = PRODUCT_RELATED_PRODUCT_CATEGORY ( 'part', '', ( #263 ) ) ;
#177 = ADVANCED_FACE ( 'NONE', ( #198 ), #8, .T. ) ;
#178 =( NAMED_UNIT ( * ) SI_UNIT ( $, .STERADIAN. ) SOLID_ANGLE_UNIT ( ) );
#179 = EDGE_CURVE ( 'NONE', #73, #87, #323, .T. ) ;
#180 = CARTESIAN_POINT ( 'NONE',  ( -16.64999999999999900, 9.349999999999999600, 7.000000000000000000 ) ) ;
#181 = ORIENTED_EDGE ( 'NONE', *, *, #179, .T. ) ;
#182 = CARTESIAN_POINT ( 'NONE',  ( -16.64999999999999900, 9.349999999999999600, 7.000000000000000000 ) ) ;
#183 = VECTOR ( 'NONE', #233, 1000.000000000000000 ) ;
#184 = PRODUCT_CONTEXT ( 'NONE', #51, 'mechanical' ) ;
#185 = EDGE_LOOP ( 'NONE', ( #238, #67, #13, #181 ) ) ;
#186 = EDGE_CURVE ( 'NONE', #237, #212, #124, .T. ) ;
#187 = VECTOR ( 'NONE', #45, 1000.000000000000000 ) ;
#188 = CARTESIAN_POINT ( 'NONE',  ( -16.30073646638374300, -9.349999999999999600, -7.000000000000000000 ) ) ;
#189 = CARTESIAN_POINT ( 'NONE',  ( -16.64999999999999900, -9.349999999999999600, 7.000000000000000000 ) ) ;
#190 = CARTESIAN_POINT ( 'NONE',  ( 15.26983225744578800, -0.2851976241691434000, 7.000000000000000000 ) ) ;
#191 = DIRECTION ( 'NONE',  ( 1.000000000000000000, 0.0000000000000000000, 0.0000000000000000000 ) ) ;
#192 = VERTEX_POINT ( 'NONE', #142 ) ;
#193 = EDGE_CURVE ( 'NONE', #205, #62, #58, .T. ) ;
#194 = ORIENTED_EDGE ( 'NONE', *, *, #235, .F. ) ;
#195 = DIRECTION ( 'NONE',  ( 0.0000000000000000000, -0.0000000000000000000, -1.000000000000000000 ) ) ;
#196 = DIRECTION ( 'NONE',  ( -1.000000000000000000, 0.0000000000000000000, -0.0000000000000000000 ) ) ;
#197 = ORIENTED_EDGE ( 'NONE', *, *, #216, .T. ) ;
#198 = FACE_OUTER_BOUND ( 'NONE', #132, .T. ) ;
#199 = CARTESIAN_POINT ( 'NONE',  ( 15.10052718208131100, -9.349999999999999600, -7.000000000000000000 ) ) ;
#200 = ORIENTED_EDGE ( 'NONE', *, *, #155, .F. ) ;
#201 = CARTESIAN_POINT ( 'NONE',  ( -16.64999999999999900, -9.349999999999999600, 7.000000000000000000 ) ) ;
#202 = CARTESIAN_POINT ( 'NONE',  ( -15.10052718208131100, -9.349999999999999600, 7.000000000000000000 ) ) ;
#203 = ADVANCED_FACE ( 'NONE', ( #254 ), #230, .F. ) ;
#204 = LINE ( 'NONE', #49, #60 ) ;
#205 = VERTEX_POINT ( 'NONE', #68 ) ;
#206 = DIRECTION ( 'NONE',  ( -0.0000000000000000000, -0.0000000000000000000, -1.000000000000000000 ) ) ;
#207 = CARTESIAN_POINT ( 'NONE',  ( 0.0000000000000000000, 0.0000000000000000000, -7.000000000000000000 ) ) ;
#208 = EDGE_CURVE ( 'NONE', #22, #76, #52, .T. ) ;
#209 = ORIENTED_EDGE ( 'NONE', *, *, #112, .T. ) ;
#210 = DIRECTION ( 'NONE',  ( 0.0000000000000000000, -1.000000000000000000, 0.0000000000000000000 ) ) ;
#211 = VECTOR ( 'NONE', #191, 1000.000000000000000 ) ;
#212 = VERTEX_POINT ( 'NONE', #21 ) ;
#213 = APPLICATION_PROTOCOL_DEFINITION ( 'draft international standard', 'automotive_design', 1998, #27 ) ;
#214 = VECTOR ( 'NONE', #206, 1000.000000000000000 ) ;
#215 = ORIENTED_EDGE ( 'NONE', *, *, #83, .T. ) ;
#216 = EDGE_CURVE ( 'NONE', #65, #87, #113, .T. ) ;
#217 = EDGE_LOOP ( 'NONE', ( #272, #84, #252, #243, #23, #260, #194, #97 ) ) ;
#218 = FACE_OUTER_BOUND ( 'NONE', #55, .T. ) ;
#219 = AXIS2_PLACEMENT_3D ( 'NONE', #175, #234, #74 ) ;
#220 = DIRECTION ( 'NONE',  ( 0.0000000000000000000, -0.0000000000000000000, -1.000000000000000000 ) ) ;
#221 = VECTOR ( 'NONE', #304, 1000.000000000000000 ) ;
#222 = DIRECTION ( 'NONE',  ( 0.0000000000000000000, -0.0000000000000000000, 1.000000000000000000 ) ) ;
#223 = PLANE ( 'NONE',  #41 ) ;
#224 = ORIENTED_EDGE ( 'NONE', *, *, #295, .T. ) ;
#225 = FACE_OUTER_BOUND ( 'NONE', #169, .T. ) ;
#226 = EDGE_CURVE ( 'NONE', #212, #119, #42, .T. ) ;
#227 = CARTESIAN_POINT ( 'NONE',  ( 15.10052718208131100, -9.349999999999999600, 7.000000000000000000 ) ) ;
#228 = MANIFOLD_SOLID_BREP ( 'Shell3', #305 ) ;
#229 = PRODUCT_DEFINITION_SHAPE ( 'NONE', 'NONE',  #134 ) ;
#230 = PLANE ( 'NONE',  #107 ) ;
#231 = DIRECTION ( 'NONE',  ( 0.9998256268259461100, -0.01867393750937520700, 0.0000000000000000000 ) ) ;
#232 = ADVANCED_FACE ( 'NONE', ( #173 ), #95, .F. ) ;
#233 = DIRECTION ( 'NONE',  ( -0.0000000000000000000, -0.0000000000000000000, -1.000000000000000000 ) ) ;
#234 = DIRECTION ( 'NONE',  ( -0.9998256268259461100, -0.01867393750937520700, 0.0000000000000000000 ) ) ;
#235 = EDGE_CURVE ( 'NONE', #87, #22, #80, .T. ) ;
#236 = PLANE ( 'NONE',  #255 ) ;
#237 = VERTEX_POINT ( 'NONE', #96 ) ;
#238 = ORIENTED_EDGE ( 'NONE', *, *, #235, .T. ) ;
#239 = LINE ( 'NONE', #189, #88 ) ;
#240 = PLANE ( 'NONE',  #291 ) ;
#241 = CARTESIAN_POINT ( 'NONE',  ( 0.0000000000000000000, 0.0000000000000000000, 0.0000000000000000000 ) ) ;
#242 = FILL_AREA_STYLE ('',( #330 ) ) ;
#243 = ORIENTED_EDGE ( 'NONE', *, *, #155, .T. ) ;
#244 = VERTEX_POINT ( 'NONE', #280 ) ;
#245 = SURFACE_STYLE_FILL_AREA ( #242 ) ;
#246 = VERTEX_POINT ( 'NONE', #327 ) ;
#247 = VECTOR ( 'NONE', #109, 1000.000000000000000 ) ;
#248 = CARTESIAN_POINT ( 'NONE',  ( -16.64999999999999900, 9.349999999999999600, -7.000000000000000000 ) ) ;
#249 = LINE ( 'NONE', #286, #135 ) ;
#250 = CARTESIAN_POINT ( 'NONE',  ( 15.10052718208131100, -9.349999999999999600, 7.000000000000000000 ) ) ;
#251 = CARTESIAN_POINT ( 'NONE',  ( -16.64999999999999900, -9.349999999999999600, -7.000000000000000000 ) ) ;
#252 = ORIENTED_EDGE ( 'NONE', *, *, #193, .T. ) ;
#253 = EDGE_CURVE ( 'NONE', #322, #22, #9, .T. ) ;
#254 = FACE_OUTER_BOUND ( 'NONE', #331, .T. ) ;
#255 = AXIS2_PLACEMENT_3D ( 'NONE', #180, #75, #261 ) ;
#256 = ORIENTED_EDGE ( 'NONE', *, *, #208, .T. ) ;
#257 = DIRECTION ( 'NONE',  ( 0.0000000000000000000, 1.000000000000000000, 0.0000000000000000000 ) ) ;
#258 = ADVANCED_FACE ( 'NONE', ( #281 ), #236, .T. ) ;
#259 = FILL_AREA_STYLE_COLOUR ( '', #265 ) ;
#260 = ORIENTED_EDGE ( 'NONE', *, *, #208, .F. ) ;
#261 = DIRECTION ( 'NONE',  ( 0.01867393750937520700, -0.9998256268259461100, 0.0000000000000000000 ) ) ;
#262 = DIRECTION ( 'NONE',  ( 0.0000000000000000000, 0.0000000000000000000, -1.000000000000000000 ) ) ;
#263 = PRODUCT ( '6152031', '6152031', '', ( #184 ) ) ;
#264 = ORIENTED_EDGE ( 'NONE', *, *, #317, .T. ) ;
#265 = COLOUR_RGB ( '',0.7529411764705882200, 0.7529411764705882200, 0.7529411764705882200 ) ;
#266 = SURFACE_STYLE_USAGE ( .BOTH. , #79 ) ;
#267 = VECTOR ( 'NONE', #289, 1000.000000000000100 ) ;
#268 = EDGE_CURVE ( 'NONE', #110, #205, #249, .T. ) ;
#269 = ORIENTED_EDGE ( 'NONE', *, *, #30, .T. ) ;
#270 = VECTOR ( 'NONE', #81, 1000.000000000000100 ) ;
#271 = CARTESIAN_POINT ( 'NONE',  ( -15.42737808252433000, 8.149999999999998600, 7.000000000000000000 ) ) ;
#272 = ORIENTED_EDGE ( 'NONE', *, *, #285, .F. ) ;
#273 = CARTESIAN_POINT ( 'NONE',  ( 15.42737808252433300, 8.149999999999998600, 7.000000000000000000 ) ) ;
#274 = VECTOR ( 'NONE', #121, 1000.000000000000000 ) ;
#275 = DIRECTION ( 'NONE',  ( -1.000000000000000000, -0.0000000000000000000, -0.0000000000000000000 ) ) ;
#276 = DIRECTION ( 'NONE',  ( 0.01867393750937520700, 0.9998256268259461100, 0.0000000000000000000 ) ) ;
#277 = EDGE_LOOP ( 'NONE', ( #130, #158, #313, #287 ) ) ;
#278 = LINE ( 'NONE', #12, #270 ) ;
#279 = AXIS2_PLACEMENT_3D ( 'NONE', #164, #38, #276 ) ;
#280 = CARTESIAN_POINT ( 'NONE',  ( -15.42737808252433000, 8.149999999999998600, 7.000000000000000000 ) ) ;
#281 = FACE_OUTER_BOUND ( 'NONE', #139, .T. ) ;
#282 = FILL_AREA_STYLE ('',( #259 ) ) ;
#283 = ORIENTED_EDGE ( 'NONE', *, *, #328, .T. ) ;
#284 = CARTESIAN_POINT ( 'NONE',  ( -16.64999999999999900, 9.349999999999999600, 7.000000000000000000 ) ) ;
#285 = EDGE_CURVE ( 'NONE', #110, #65, #71, .T. ) ;
#286 = CARTESIAN_POINT ( 'NONE',  ( 15.26983225744578800, -0.2851976241691434000, -7.000000000000000000 ) ) ;
#287 = ORIENTED_EDGE ( 'NONE', *, *, #11, .T. ) ;
#288 = LINE ( 'NONE', #251, #211 ) ;
#289 = DIRECTION ( 'NONE',  ( 0.01867393750937520700, -0.9998256268259461100, -0.0000000000000000000 ) ) ;
#290 =( NAMED_UNIT ( * ) PLANE_ANGLE_UNIT ( ) SI_UNIT ( $, .RADIAN. ) );
#291 = AXIS2_PLACEMENT_3D ( 'NONE', #207, #262, #101 ) ;
#292 = ORIENTED_EDGE ( 'NONE', *, *, #150, .F. ) ;
#293 = VECTOR ( 'NONE', #220, 1000.000000000000000 ) ;
#294 = DIRECTION ( 'NONE',  ( 0.0000000000000000000, -1.000000000000000000, 0.0000000000000000000 ) ) ;
#295 = EDGE_CURVE ( 'NONE', #192, #244, #2, .T. ) ;
#296 = ORIENTED_EDGE ( 'NONE', *, *, #170, .F. ) ;
#297 = ORIENTED_EDGE ( 'NONE', *, *, #295, .F. ) ;
#298 = LINE ( 'NONE', #159, #157 ) ;
#299 = CARTESIAN_POINT ( 'NONE',  ( 16.30073646638374600, -9.349999999999999600, -7.000000000000000000 ) ) ;
#300 = DIRECTION ( 'NONE',  ( -0.0000000000000000000, -0.0000000000000000000, -1.000000000000000000 ) ) ;
#301 =( GEOMETRIC_REPRESENTATION_CONTEXT ( 3 ) GLOBAL_UNCERTAINTY_ASSIGNED_CONTEXT ( ( #63 ) ) GLOBAL_UNIT_ASSIGNED_CONTEXT ( ( #312, #152, #333 ) ) REPRESENTATION_CONTEXT ( 'NONE', 'WORKASPACE' ) );
#302 = ADVANCED_FACE ( 'NONE', ( #144 ), #240, .T. ) ;
#303 = SURFACE_STYLE_USAGE ( .BOTH. , #117 ) ;
#304 = DIRECTION ( 'NONE',  ( -1.000000000000000000, -0.0000000000000000000, -0.0000000000000000000 ) ) ;
#305 = CLOSED_SHELL ( 'NONE', ( #116, #94, #302, #177, #325, #258, #203, #20, #72, #232 ) ) ;
#306 = COLOUR_RGB ( '',0.7529411764705882200, 0.7529411764705882200, 0.7529411764705882200 ) ;
#307 = UNCERTAINTY_MEASURE_WITH_UNIT (LENGTH_MEASURE( 1.000000000000000100E-005 ), #103, 'distance_accuracy_value', 'NONE');
#308 = LINE ( 'NONE', #273, #247 ) ;
#309 = CARTESIAN_POINT ( 'NONE',  ( -16.64999999999999900, -9.349999999999999600, -7.000000000000000000 ) ) ;
#310 = CARTESIAN_POINT ( 'NONE',  ( -16.64999999999999900, 9.349999999999999600, 7.000000000000000000 ) ) ;
#311 = AXIS2_PLACEMENT_3D ( 'NONE', #172, #294, #133 ) ;
#312 =( LENGTH_UNIT ( ) NAMED_UNIT ( * ) SI_UNIT ( .MILLI., .METRE. ) );
#313 = ORIENTED_EDGE ( 'NONE', *, *, #100, .T. ) ;
#314 = ORIENTED_EDGE ( 'NONE', *, *, #48, .F. ) ;
#315 = VECTOR ( 'NONE', #46, 1000.000000000000100 ) ;
#316 = ORIENTED_EDGE ( 'NONE', *, *, #226, .F. ) ;
#317 = EDGE_CURVE ( 'NONE', #244, #212, #204, .T. ) ;
#318 = VECTOR ( 'NONE', #44, 1000.000000000000000 ) ;
#319 = DIRECTION ( 'NONE',  ( 0.01867393750937520700, 0.9998256268259461100, -0.0000000000000000000 ) ) ;
#320 = AXIS2_PLACEMENT_3D ( 'NONE', #310, #210, #50 ) ;
#321 = ORIENTED_EDGE ( 'NONE', *, *, #100, .F. ) ;
#322 = VERTEX_POINT ( 'NONE', #182 ) ;
#323 = LINE ( 'NONE', #114, #66 ) ;
#324 = DIRECTION ( 'NONE',  ( 0.01867393750937520700, -0.9998256268259461100, -0.0000000000000000000 ) ) ;
#325 = ADVANCED_FACE ( 'NONE', ( #118 ), #25, .F. ) ;
#326 =( NAMED_UNIT ( * ) PLANE_ANGLE_UNIT ( ) SI_UNIT ( $, .RADIAN. ) );
#327 = CARTESIAN_POINT ( 'NONE',  ( 16.30073646638374600, -9.349999999999999600, 7.000000000000000000 ) ) ;
#328 = EDGE_CURVE ( 'NONE', #322, #237, #54, .T. ) ;
#329 = DIRECTION ( 'NONE',  ( -1.000000000000000000, 0.0000000000000000000, 0.0000000000000000000 ) ) ;
#330 = FILL_AREA_STYLE_COLOUR ( '', #306 ) ;
#331 = EDGE_LOOP ( 'NONE', ( #28, #57, #56, #39 ) ) ;
#332 = VECTOR ( 'NONE', #3, 1000.000000000000000 ) ;
#333 =( NAMED_UNIT ( * ) SI_UNIT ( $, .STERADIAN. ) SOLID_ANGLE_UNIT ( ) );
#334 = ORIENTED_EDGE ( 'NONE', *, *, #253, .T. ) ;
ENDSEC;
END-ISO-10303-21;
