ISO-10303-21;
HEADER;
FILE_DESCRIPTION (( 'STEP AP214' ),
    '1' );
FILE_NAME ('6152058.STEP',
    '2016-06-29T09:18:04',
    ( '' ),
    ( '' ),
    'SwSTEP 2.0',
    'SolidWorks 2014',
    '' );
FILE_SCHEMA (( 'AUTOMOTIVE_DESIGN' ));
ENDSEC;

DATA;
#1 = PRODUCT_DEFINITION_FORMATION_WITH_SPECIFIED_SOURCE ( 'ANY', '', #121, .NOT_KNOWN. ) ;
#2 = APPLICATION_PROTOCOL_DEFINITION ( 'draft international standard', 'automotive_design', 1998, #32 ) ;
#3 = VECTOR ( 'NONE', #196, 1000.000000000000100 ) ;
#4 = PLANE ( 'NONE',  #272 ) ;
#5 = PRODUCT_CONTEXT ( 'NONE', #32, 'mechanical' ) ;
#6 = CARTESIAN_POINT ( 'NONE',  ( -21.30176039633858700, -9.349999999999997900, 7.000000000000000000 ) ) ;
#7 = CARTESIAN_POINT ( 'NONE',  ( 21.70000000000000300, 9.350000000000001400, 7.000000000000000000 ) ) ;
#8 = LINE ( 'NONE', #74, #68 ) ;
#9 = LINE ( 'NONE', #148, #3 ) ;
#10 = LINE ( 'NONE', #44, #13 ) ;
#11 = DIRECTION ( 'NONE',  ( 0.0000000000000000000, -0.0000000000000000000, 1.000000000000000000 ) ) ;
#12 = DIRECTION ( 'NONE',  ( 0.0000000000000000000, 1.000000000000000000, 0.0000000000000000000 ) ) ;
#13 = VECTOR ( 'NONE', #40, 1000.000000000000000 ) ;
#14 = DIRECTION ( 'NONE',  ( 0.0000000000000000000, -0.0000000000000000000, -1.000000000000000000 ) ) ;
#15 = VECTOR ( 'NONE', #233, 1000.000000000000000 ) ;
#16 = PLANE ( 'NONE',  #142 ) ;
#17 = PRODUCT_DEFINITION ( 'UNKNOWN', '', #1, #130 ) ;
#18 = DIRECTION ( 'NONE',  ( -0.0000000000000000000, -0.0000000000000000000, -1.000000000000000000 ) ) ;
#19 = DIRECTION ( 'NONE',  ( 1.000000000000000000, 0.0000000000000000000, 0.0000000000000000000 ) ) ;
#20 = ORIENTED_EDGE ( 'NONE', *, *, #310, .F. ) ;
#21 = VECTOR ( 'NONE', #88, 1000.000000000000000 ) ;
#22 = VECTOR ( 'NONE', #320, 1000.000000000000000 ) ;
#23 = EDGE_CURVE ( 'NONE', #77, #257, #9, .T. ) ;
#24 = LINE ( 'NONE', #298, #81 ) ;
#25 = FACE_OUTER_BOUND ( 'NONE', #249, .T. ) ;
#26 = LINE ( 'NONE', #288, #15 ) ;
#27 = AXIS2_PLACEMENT_3D ( 'NONE', #334, #318, #171 ) ;
#28 = DIRECTION ( 'NONE',  ( 0.9997733122812662000, -0.02129140789487412800, 0.0000000000000000000 ) ) ;
#29 = LINE ( 'NONE', #161, #253 ) ;
#30 = CARTESIAN_POINT ( 'NONE',  ( 21.70000000000000300, 9.350000000000001400, 7.000000000000000000 ) ) ;
#31 = ADVANCED_FACE ( 'NONE', ( #152 ), #4, .F. ) ;
#32 = APPLICATION_CONTEXT ( 'automotive_design' ) ;
#33 = EDGE_CURVE ( 'NONE', #291, #290, #10, .T. ) ;
#34 = APPLICATION_PROTOCOL_DEFINITION ( 'draft international standard', 'automotive_design', 1998, #197 ) ;
#35 = CARTESIAN_POINT ( 'NONE',  ( -20.10148830939734300, -9.349999999999997900, 7.000000000000000000 ) ) ;
#36 = EDGE_CURVE ( 'NONE', #329, #257, #109, .T. ) ;
#37 = VECTOR ( 'NONE', #250, 1000.000000000000100 ) ;
#38 = CARTESIAN_POINT ( 'NONE',  ( -21.69999999999999600, 9.350000000000001400, -7.000000000000000000 ) ) ;
#39 = VECTOR ( 'NONE', #166, 1000.000000000000000 ) ;
#40 = DIRECTION ( 'NONE',  ( -0.0000000000000000000, -0.0000000000000000000, -1.000000000000000000 ) ) ;
#41 = CARTESIAN_POINT ( 'NONE',  ( -21.69999999999999600, -9.349999999999997900, 7.000000000000000000 ) ) ;
#42 = VECTOR ( 'NONE', #18, 1000.000000000000000 ) ;
#43 = CARTESIAN_POINT ( 'NONE',  ( 20.47417243047085800, 8.150000000000000400, -7.000000000000000000 ) ) ;
#44 = CARTESIAN_POINT ( 'NONE',  ( -21.69999999999999600, 9.350000000000001400, 7.000000000000000000 ) ) ;
#45 = CARTESIAN_POINT ( 'NONE',  ( 21.70000000000000300, 9.350000000000001400, -7.000000000000000000 ) ) ;
#46 = VECTOR ( 'NONE', #127, 1000.000000000000000 ) ;
#47 = FACE_OUTER_BOUND ( 'NONE', #194, .T. ) ;
#48 = VECTOR ( 'NONE', #191, 1000.000000000000000 ) ;
#49 = ORIENTED_EDGE ( 'NONE', *, *, #303, .F. ) ;
#50 = EDGE_CURVE ( 'NONE', #174, #111, #302, .T. ) ;
#51 = VECTOR ( 'NONE', #296, 1000.000000000000100 ) ;
#52 = PLANE ( 'NONE',  #113 ) ;
#53 = CARTESIAN_POINT ( 'NONE',  ( -21.69999999999999600, 9.350000000000001400, 7.000000000000000000 ) ) ;
#54 = FACE_OUTER_BOUND ( 'NONE', #134, .T. ) ;
#55 = LINE ( 'NONE', #276, #51 ) ;
#56 = LINE ( 'NONE', #141, #39 ) ;
#57 = CARTESIAN_POINT ( 'NONE',  ( -21.69999999999999600, 9.350000000000001400, 7.000000000000000000 ) ) ;
#58 = EDGE_CURVE ( 'NONE', #162, #189, #102, .T. ) ;
#59 = CARTESIAN_POINT ( 'NONE',  ( -20.29140535733863600, -0.4321305469112055000, -7.000000000000000000 ) ) ;
#60 = ADVANCED_FACE ( 'NONE', ( #164 ), #309, .F. ) ;
#61 = EDGE_CURVE ( 'NONE', #236, #270, #123, .T. ) ;
#62 = FILL_AREA_STYLE ('',( #229 ) ) ;
#63 = LINE ( 'NONE', #59, #209 ) ;
#64 = LINE ( 'NONE', #278, #244 ) ;
#65 = CARTESIAN_POINT ( 'NONE',  ( 20.47417243047085800, 8.150000000000000400, 7.000000000000000000 ) ) ;
#66 =( GEOMETRIC_REPRESENTATION_CONTEXT ( 3 ) GLOBAL_UNCERTAINTY_ASSIGNED_CONTEXT ( ( #220 ) ) GLOBAL_UNIT_ASSIGNED_CONTEXT ( ( #282, #116, #301 ) ) REPRESENTATION_CONTEXT ( 'NONE', 'WORKASPACE' ) );
#67 = LINE ( 'NONE', #266, #46 ) ;
#68 = VECTOR ( 'NONE', #19, 1000.000000000000000 ) ;
#69 = CARTESIAN_POINT ( 'NONE',  ( 20.10148830939735000, -9.349999999999997900, 7.000000000000000000 ) ) ;
#70 = LINE ( 'NONE', #333, #269 ) ;
#71 = MECHANICAL_DESIGN_GEOMETRIC_PRESENTATION_REPRESENTATION (  '', ( #95 ), #66 ) ;
#72 = DIRECTION ( 'NONE',  ( -1.000000000000000000, 0.0000000000000000000, -0.0000000000000000000 ) ) ;
#73 = SHAPE_DEFINITION_REPRESENTATION ( #177, #271 ) ;
#74 = CARTESIAN_POINT ( 'NONE',  ( -21.69999999999999600, -9.349999999999997900, 7.000000000000000000 ) ) ;
#75 = EDGE_CURVE ( 'NONE', #290, #135, #131, .T. ) ;
#76 = LINE ( 'NONE', #332, #48 ) ;
#77 = VERTEX_POINT ( 'NONE', #287 ) ;
#78 = CARTESIAN_POINT ( 'NONE',  ( 21.30176039633859000, -9.349999999999997900, 7.000000000000000000 ) ) ;
#79 = DIRECTION ( 'NONE',  ( 0.02129140789487412400, -0.9997733122812660900, 0.0000000000000000000 ) ) ;
#80 = COLOUR_RGB ( '',0.7529411764705882200, 0.7529411764705882200, 0.7529411764705882200 ) ;
#81 = VECTOR ( 'NONE', #251, 1000.000000000000100 ) ;
#82 = PRESENTATION_LAYER_ASSIGNMENT (  '', '', ( #95 ) ) ;
#83 = ORIENTED_EDGE ( 'NONE', *, *, #50, .F. ) ;
#84 = ORIENTED_EDGE ( 'NONE', *, *, #321, .T. ) ;
#85 = VECTOR ( 'NONE', #225, 1000.000000000000000 ) ;
#86 = VECTOR ( 'NONE', #172, 1000.000000000000000 ) ;
#87 = CARTESIAN_POINT ( 'NONE',  ( -20.50027202526247900, 9.375549689473849900, 7.000000000000000000 ) ) ;
#88 = DIRECTION ( 'NONE',  ( -1.000000000000000000, -0.0000000000000000000, -0.0000000000000000000 ) ) ;
#89 = ADVANCED_FACE ( 'NONE', ( #118 ), #263, .T. ) ;
#90 = LINE ( 'NONE', #6, #42 ) ;
#91 = SURFACE_STYLE_USAGE ( .BOTH. , #254 ) ;
#92 = EDGE_CURVE ( 'NONE', #230, #162, #159, .T. ) ;
#93 = DIRECTION ( 'NONE',  ( -0.9997733122812662000, -0.02129140789487412800, 0.0000000000000000000 ) ) ;
#94 = CARTESIAN_POINT ( 'NONE',  ( -21.69999999999999600, 9.350000000000001400, 7.000000000000000000 ) ) ;
#95 = STYLED_ITEM ( 'NONE', ( #264 ), #271 ) ;
#96 = CARTESIAN_POINT ( 'NONE',  ( 0.0000000000000000000, 0.0000000000000000000, 7.000000000000000000 ) ) ;
#97 = LINE ( 'NONE', #235, #37 ) ;
#98 = UNCERTAINTY_MEASURE_WITH_UNIT (LENGTH_MEASURE( 1.000000000000000100E-005 ), #300, 'distance_accuracy_value', 'NONE');
#99 = CARTESIAN_POINT ( 'NONE',  ( -21.30176039633858700, -9.349999999999997900, 7.000000000000000000 ) ) ;
#100 = CARTESIAN_POINT ( 'NONE',  ( -20.47417243047085100, 8.150000000000000400, 7.000000000000000000 ) ) ;
#101 = PRODUCT_RELATED_PRODUCT_CATEGORY ( 'part', '', ( #121 ) ) ;
#102 = LINE ( 'NONE', #35, #22 ) ;
#103 = EDGE_CURVE ( 'NONE', #245, #77, #26, .T. ) ;
#104 = ORIENTED_EDGE ( 'NONE', *, *, #326, .T. ) ;
#105 = ORIENTED_EDGE ( 'NONE', *, *, #33, .F. ) ;
#106 = AXIS2_PLACEMENT_3D ( 'NONE', #137, #28, #226 ) ;
#107 = ORIENTED_EDGE ( 'NONE', *, *, #328, .T. ) ;
#108 =( GEOMETRIC_REPRESENTATION_CONTEXT ( 3 ) GLOBAL_UNCERTAINTY_ASSIGNED_CONTEXT ( ( #98 ) ) GLOBAL_UNIT_ASSIGNED_CONTEXT ( ( #300, #144, #317 ) ) REPRESENTATION_CONTEXT ( 'NONE', 'WORKASPACE' ) );
#109 = LINE ( 'NONE', #7, #86 ) ;
#110 = DIRECTION ( 'NONE',  ( -0.9997733122812662000, -0.02129140789487412800, 0.0000000000000000000 ) ) ;
#111 = VERTEX_POINT ( 'NONE', #212 ) ;
#112 = DIRECTION ( 'NONE',  ( 1.000000000000000000, 0.0000000000000000000, 0.0000000000000000000 ) ) ;
#113 = AXIS2_PLACEMENT_3D ( 'NONE', #87, #110, #295 ) ;
#114 = ADVANCED_FACE ( 'NONE', ( #145 ), #255, .F. ) ;
#115 = DIRECTION ( 'NONE',  ( 0.02129140789487412400, 0.9997733122812660900, 0.0000000000000000000 ) ) ;
#116 =( NAMED_UNIT ( * ) PLANE_ANGLE_UNIT ( ) SI_UNIT ( $, .RADIAN. ) );
#117 = ORIENTED_EDGE ( 'NONE', *, *, #103, .F. ) ;
#118 = FACE_OUTER_BOUND ( 'NONE', #213, .T. ) ;
#119 = DIRECTION ( 'NONE',  ( 0.9997733122812662000, -0.02129140789487412800, 0.0000000000000000000 ) ) ;
#120 = CARTESIAN_POINT ( 'NONE',  ( 21.70000000000000300, 9.350000000000001400, 7.000000000000000000 ) ) ;
#121 = PRODUCT ( '6152058', '6152058', '', ( #5 ) ) ;
#122 = PLANE ( 'NONE',  #155 ) ;
#123 = LINE ( 'NONE', #284, #149 ) ;
#124 = LINE ( 'NONE', #315, #234 ) ;
#125 = CARTESIAN_POINT ( 'NONE',  ( -20.10148830939734300, -9.349999999999997900, -7.000000000000000000 ) ) ;
#126 = SURFACE_STYLE_FILL_AREA ( #242 ) ;
#127 = DIRECTION ( 'NONE',  ( -0.0000000000000000000, -0.0000000000000000000, -1.000000000000000000 ) ) ;
#128 = EDGE_LOOP ( 'NONE', ( #208, #217, #218, #238 ) ) ;
#129 = PLANE ( 'NONE',  #165 ) ;
#130 = PRODUCT_DEFINITION_CONTEXT ( 'detailed design', #197, 'design' ) ;
#131 = LINE ( 'NONE', #304, #139 ) ;
#132 = DIRECTION ( 'NONE',  ( 0.02129140789487412400, 0.9997733122812660900, -0.0000000000000000000 ) ) ;
#133 = CLOSED_SHELL ( 'NONE', ( #281, #31, #89, #195, #114, #227, #60, #316, #169, #299 ) ) ;
#134 = EDGE_LOOP ( 'NONE', ( #138, #83, #185, #187 ) ) ;
#135 = VERTEX_POINT ( 'NONE', #211 ) ;
#136 = VECTOR ( 'NONE', #239, 1000.000000000000100 ) ;
#137 = CARTESIAN_POINT ( 'NONE',  ( 20.50027202526248600, 9.375549689473849900, 7.000000000000000000 ) ) ;
#138 = ORIENTED_EDGE ( 'NONE', *, *, #326, .F. ) ;
#139 = VECTOR ( 'NONE', #311, 1000.000000000000100 ) ;
#140 = PRESENTATION_STYLE_ASSIGNMENT (( #178 ) ) ;
#141 = CARTESIAN_POINT ( 'NONE',  ( 0.0000000000000000000, 8.150000000000000400, 7.000000000000000000 ) ) ;
#142 = AXIS2_PLACEMENT_3D ( 'NONE', #41, #12, #11 ) ;
#143 = DIRECTION ( 'NONE',  ( 1.000000000000000000, 0.0000000000000000000, 0.0000000000000000000 ) ) ;
#144 =( NAMED_UNIT ( * ) PLANE_ANGLE_UNIT ( ) SI_UNIT ( $, .RADIAN. ) );
#145 = FACE_OUTER_BOUND ( 'NONE', #214, .T. ) ;
#146 = DIRECTION ( 'NONE',  ( 0.0000000000000000000, -0.0000000000000000000, -1.000000000000000000 ) ) ;
#147 = DIRECTION ( 'NONE',  ( 0.0000000000000000000, -1.000000000000000000, 0.0000000000000000000 ) ) ;
#148 = CARTESIAN_POINT ( 'NONE',  ( 21.49113333207616000, -0.4576802363850545600, -7.000000000000000000 ) ) ;
#149 = VECTOR ( 'NONE', #283, 1000.000000000000000 ) ;
#150 = FACE_OUTER_BOUND ( 'NONE', #204, .T. ) ;
#151 = CARTESIAN_POINT ( 'NONE',  ( -21.69999999999999600, 8.150000000000000400, 7.000000000000000000 ) ) ;
#152 = FACE_OUTER_BOUND ( 'NONE', #312, .T. ) ;
#153 = CARTESIAN_POINT ( 'NONE',  ( 20.10148830939735000, -9.349999999999997900, 7.000000000000000000 ) ) ;
#154 = ORIENTED_EDGE ( 'NONE', *, *, #50, .T. ) ;
#155 = AXIS2_PLACEMENT_3D ( 'NONE', #94, #93, #79 ) ;
#156 = CARTESIAN_POINT ( 'NONE',  ( -20.10148830939734300, -9.349999999999997900, 7.000000000000000000 ) ) ;
#157 = FACE_OUTER_BOUND ( 'NONE', #277, .T. ) ;
#158 = MANIFOLD_SOLID_BREP ( 'Shell3', #133 ) ;
#159 = LINE ( 'NONE', #241, #136 ) ;
#160 = VERTEX_POINT ( 'NONE', #183 ) ;
#161 = CARTESIAN_POINT ( 'NONE',  ( 21.49113333207616000, -0.4576802363850545600, 7.000000000000000000 ) ) ;
#162 = VERTEX_POINT ( 'NONE', #156 ) ;
#163 = FACE_OUTER_BOUND ( 'NONE', #128, .T. ) ;
#164 = FACE_OUTER_BOUND ( 'NONE', #198, .T. ) ;
#165 = AXIS2_PLACEMENT_3D ( 'NONE', #120, #119, #115 ) ;
#166 = DIRECTION ( 'NONE',  ( -1.000000000000000000, 0.0000000000000000000, 0.0000000000000000000 ) ) ;
#167 = DIRECTION ( 'NONE',  ( -1.000000000000000000, 0.0000000000000000000, 0.0000000000000000000 ) ) ;
#168 = ORIENTED_EDGE ( 'NONE', *, *, #328, .F. ) ;
#169 = ADVANCED_FACE ( 'NONE', ( #150 ), #182, .T. ) ;
#170 =( NAMED_UNIT ( * ) SI_UNIT ( $, .STERADIAN. ) SOLID_ANGLE_UNIT ( ) );
#171 = DIRECTION ( 'NONE',  ( 1.000000000000000000, 0.0000000000000000000, 0.0000000000000000000 ) ) ;
#172 = DIRECTION ( 'NONE',  ( -0.0000000000000000000, -0.0000000000000000000, -1.000000000000000000 ) ) ;
#173 =( NAMED_UNIT ( * ) PLANE_ANGLE_UNIT ( ) SI_UNIT ( $, .RADIAN. ) );
#174 = VERTEX_POINT ( 'NONE', #153 ) ;
#175 = ORIENTED_EDGE ( 'NONE', *, *, #303, .T. ) ;
#176 =( LENGTH_UNIT ( ) NAMED_UNIT ( * ) SI_UNIT ( .MILLI., .METRE. ) );
#177 = PRODUCT_DEFINITION_SHAPE ( 'NONE', 'NONE',  #17 ) ;
#178 = SURFACE_STYLE_USAGE ( .BOTH. , #179 ) ;
#179 = SURFACE_SIDE_STYLE ('',( #126 ) ) ;
#180 = SURFACE_STYLE_FILL_AREA ( #62 ) ;
#181 = ORIENTED_EDGE ( 'NONE', *, *, #23, .T. ) ;
#182 = PLANE ( 'NONE',  #188 ) ;
#183 = CARTESIAN_POINT ( 'NONE',  ( -20.47417243047085100, 8.150000000000000400, -7.000000000000000000 ) ) ;
#184 = ORIENTED_EDGE ( 'NONE', *, *, #285, .F. ) ;
#185 = ORIENTED_EDGE ( 'NONE', *, *, #297, .T. ) ;
#186 = ORIENTED_EDGE ( 'NONE', *, *, #280, .T. ) ;
#187 = ORIENTED_EDGE ( 'NONE', *, *, #61, .T. ) ;
#188 = AXIS2_PLACEMENT_3D ( 'NONE', #151, #147, #146 ) ;
#189 = VERTEX_POINT ( 'NONE', #125 ) ;
#190 = ORIENTED_EDGE ( 'NONE', *, *, #313, .F. ) ;
#191 = DIRECTION ( 'NONE',  ( 1.000000000000000000, 0.0000000000000000000, 0.0000000000000000000 ) ) ;
#192 = ORIENTED_EDGE ( 'NONE', *, *, #321, .F. ) ;
#193 = PLANE ( 'NONE',  #106 ) ;
#194 = EDGE_LOOP ( 'NONE', ( #258, #286, #202, #222 ) ) ;
#195 = ADVANCED_FACE ( 'NONE', ( #157 ), #129, .T. ) ;
#196 = DIRECTION ( 'NONE',  ( 0.02129140789487412400, 0.9997733122812660900, -0.0000000000000000000 ) ) ;
#197 = APPLICATION_CONTEXT ( 'automotive_design' ) ;
#198 = EDGE_LOOP ( 'NONE', ( #49, #154, #84, #117 ) ) ;
#199 = ORIENTED_EDGE ( 'NONE', *, *, #310, .T. ) ;
#200 = FILL_AREA_STYLE_COLOUR ( '', #80 ) ;
#201 = EDGE_CURVE ( 'NONE', #230, #160, #67, .T. ) ;
#202 = ORIENTED_EDGE ( 'NONE', *, *, #92, .T. ) ;
#203 = ORIENTED_EDGE ( 'NONE', *, *, #308, .T. ) ;
#204 = EDGE_LOOP ( 'NONE', ( #168, #292, #275, #327 ) ) ;
#205 = DIRECTION ( 'NONE',  ( 0.0000000000000000000, -0.0000000000000000000, -1.000000000000000000 ) ) ;
#206 =( GEOMETRIC_REPRESENTATION_CONTEXT ( 3 ) GLOBAL_UNCERTAINTY_ASSIGNED_CONTEXT ( ( #210 ) ) GLOBAL_UNIT_ASSIGNED_CONTEXT ( ( #176, #173, #170 ) ) REPRESENTATION_CONTEXT ( 'NONE', 'WORKASPACE' ) );
#207 = DIRECTION ( 'NONE',  ( 0.0000000000000000000, -1.000000000000000000, 0.0000000000000000000 ) ) ;
#208 = ORIENTED_EDGE ( 'NONE', *, *, #58, .F. ) ;
#209 = VECTOR ( 'NONE', #279, 1000.000000000000100 ) ;
#210 = UNCERTAINTY_MEASURE_WITH_UNIT (LENGTH_MEASURE( 1.000000000000000100E-005 ), #176, 'distance_accuracy_value', 'NONE');
#211 = CARTESIAN_POINT ( 'NONE',  ( -21.30176039633858700, -9.349999999999997900, -7.000000000000000000 ) ) ;
#212 = CARTESIAN_POINT ( 'NONE',  ( 20.10148830939735000, -9.349999999999997900, -7.000000000000000000 ) ) ;
#213 = EDGE_LOOP ( 'NONE', ( #192, #104, #107, #274, #314, #252, #246, #268 ) ) ;
#214 = EDGE_LOOP ( 'NONE', ( #324, #105, #223, #294 ) ) ;
#215 = ORIENTED_EDGE ( 'NONE', *, *, #297, .F. ) ;
#216 = MECHANICAL_DESIGN_GEOMETRIC_PRESENTATION_REPRESENTATION (  '', ( #232 ), #206 ) ;
#217 = ORIENTED_EDGE ( 'NONE', *, *, #280, .F. ) ;
#218 = ORIENTED_EDGE ( 'NONE', *, *, #289, .T. ) ;
#219 = PRESENTATION_LAYER_ASSIGNMENT (  '', '', ( #232 ) ) ;
#220 = UNCERTAINTY_MEASURE_WITH_UNIT (LENGTH_MEASURE( 1.000000000000000100E-005 ), #282, 'distance_accuracy_value', 'NONE');
#221 = VERTEX_POINT ( 'NONE', #99 ) ;
#222 = ORIENTED_EDGE ( 'NONE', *, *, #58, .T. ) ;
#223 = ORIENTED_EDGE ( 'NONE', *, *, #308, .F. ) ;
#224 = AXIS2_PLACEMENT_3D ( 'NONE', #237, #207, #205 ) ;
#225 = DIRECTION ( 'NONE',  ( -1.000000000000000000, -0.0000000000000000000, -0.0000000000000000000 ) ) ;
#226 = DIRECTION ( 'NONE',  ( 0.02129140789487412400, 0.9997733122812660900, 0.0000000000000000000 ) ) ;
#227 = ADVANCED_FACE ( 'NONE', ( #25 ), #122, .T. ) ;
#228 = ORIENTED_EDGE ( 'NONE', *, *, #92, .F. ) ;
#229 = FILL_AREA_STYLE_COLOUR ( '', #267 ) ;
#230 = VERTEX_POINT ( 'NONE', #100 ) ;
#231 = DIRECTION ( 'NONE',  ( 0.0000000000000000000, 0.0000000000000000000, -1.000000000000000000 ) ) ;
#232 = STYLED_ITEM ( 'NONE', ( #140 ), #158 ) ;
#233 = DIRECTION ( 'NONE',  ( 0.0000000000000000000, -0.0000000000000000000, -1.000000000000000000 ) ) ;
#234 = VECTOR ( 'NONE', #167, 1000.000000000000000 ) ;
#235 = CARTESIAN_POINT ( 'NONE',  ( 20.29140535733864300, -0.4321305469112056700, 7.000000000000000000 ) ) ;
#236 = VERTEX_POINT ( 'NONE', #65 ) ;
#237 = CARTESIAN_POINT ( 'NONE',  ( -21.69999999999999600, 9.350000000000001400, 7.000000000000000000 ) ) ;
#238 = ORIENTED_EDGE ( 'NONE', *, *, #319, .T. ) ;
#239 = DIRECTION ( 'NONE',  ( 0.02129140789487412400, -0.9997733122812660900, -0.0000000000000000000 ) ) ;
#240 = ORIENTED_EDGE ( 'NONE', *, *, #285, .T. ) ;
#241 = CARTESIAN_POINT ( 'NONE',  ( -20.29140535733863600, -0.4321305469112055000, 7.000000000000000000 ) ) ;
#242 = FILL_AREA_STYLE ('',( #200 ) ) ;
#243 = AXIS2_PLACEMENT_3D ( 'NONE', #261, #259, #256 ) ;
#244 = VECTOR ( 'NONE', #112, 1000.000000000000000 ) ;
#245 = VERTEX_POINT ( 'NONE', #78 ) ;
#246 = ORIENTED_EDGE ( 'NONE', *, *, #305, .F. ) ;
#247 = LINE ( 'NONE', #273, #85 ) ;
#248 = ORIENTED_EDGE ( 'NONE', *, *, #289, .F. ) ;
#249 = EDGE_LOOP ( 'NONE', ( #322, #248, #20, #325 ) ) ;
#250 = DIRECTION ( 'NONE',  ( 0.02129140789487412400, 0.9997733122812660900, -0.0000000000000000000 ) ) ;
#251 = DIRECTION ( 'NONE',  ( 0.02129140789487412400, 0.9997733122812660900, -0.0000000000000000000 ) ) ;
#252 = ORIENTED_EDGE ( 'NONE', *, *, #75, .F. ) ;
#253 = VECTOR ( 'NONE', #132, 1000.000000000000100 ) ;
#254 = SURFACE_SIDE_STYLE ('',( #180 ) ) ;
#255 = PLANE ( 'NONE',  #224 ) ;
#256 = DIRECTION ( 'NONE',  ( -1.000000000000000000, 0.0000000000000000000, -0.0000000000000000000 ) ) ;
#257 = VERTEX_POINT ( 'NONE', #45 ) ;
#258 = ORIENTED_EDGE ( 'NONE', *, *, #330, .F. ) ;
#259 = DIRECTION ( 'NONE',  ( 0.0000000000000000000, 0.0000000000000000000, -1.000000000000000000 ) ) ;
#260 = AXIS2_PLACEMENT_3D ( 'NONE', #323, #307, #306 ) ;
#261 = CARTESIAN_POINT ( 'NONE',  ( 0.0000000000000000000, 0.0000000000000000000, -7.000000000000000000 ) ) ;
#262 = VECTOR ( 'NONE', #14, 1000.000000000000000 ) ;
#263 = PLANE ( 'NONE',  #243 ) ;
#264 = PRESENTATION_STYLE_ASSIGNMENT (( #91 ) ) ;
#265 = ORIENTED_EDGE ( 'NONE', *, *, #36, .F. ) ;
#266 = CARTESIAN_POINT ( 'NONE',  ( -20.47417243047085100, 8.150000000000000400, 7.000000000000000000 ) ) ;
#267 = COLOUR_RGB ( '',0.7529411764705882200, 0.7529411764705882200, 0.7529411764705882200 ) ;
#268 = ORIENTED_EDGE ( 'NONE', *, *, #23, .F. ) ;
#269 = VECTOR ( 'NONE', #143, 1000.000000000000000 ) ;
#270 = VERTEX_POINT ( 'NONE', #43 ) ;
#271 = ADVANCED_BREP_SHAPE_REPRESENTATION ( '6152058', ( #158, #27 ), #108 ) ;
#272 = AXIS2_PLACEMENT_3D ( 'NONE', #96, #231, #72 ) ;
#273 = CARTESIAN_POINT ( 'NONE',  ( -21.69999999999999600, 9.350000000000001400, -7.000000000000000000 ) ) ;
#274 = ORIENTED_EDGE ( 'NONE', *, *, #330, .T. ) ;
#275 = ORIENTED_EDGE ( 'NONE', *, *, #313, .T. ) ;
#276 = CARTESIAN_POINT ( 'NONE',  ( -21.49113333207615300, -0.4576802363850544000, 7.000000000000000000 ) ) ;
#277 = EDGE_LOOP ( 'NONE', ( #181, #265, #184, #293 ) ) ;
#278 = CARTESIAN_POINT ( 'NONE',  ( -21.69999999999999600, -9.349999999999997900, -7.000000000000000000 ) ) ;
#279 = DIRECTION ( 'NONE',  ( 0.02129140789487412400, -0.9997733122812660900, -0.0000000000000000000 ) ) ;
#280 = EDGE_CURVE ( 'NONE', #221, #162, #8, .T. ) ;
#281 = ADVANCED_FACE ( 'NONE', ( #163 ), #16, .F. ) ;
#282 =( LENGTH_UNIT ( ) NAMED_UNIT ( * ) SI_UNIT ( .MILLI., .METRE. ) );
#283 = DIRECTION ( 'NONE',  ( -0.0000000000000000000, -0.0000000000000000000, -1.000000000000000000 ) ) ;
#284 = CARTESIAN_POINT ( 'NONE',  ( 20.47417243047085800, 8.150000000000000400, 7.000000000000000000 ) ) ;
#285 = EDGE_CURVE ( 'NONE', #245, #329, #29, .T. ) ;
#286 = ORIENTED_EDGE ( 'NONE', *, *, #201, .F. ) ;
#287 = CARTESIAN_POINT ( 'NONE',  ( 21.30176039633859000, -9.349999999999997900, -7.000000000000000000 ) ) ;
#288 = CARTESIAN_POINT ( 'NONE',  ( 21.30176039633859400, -9.349999999999997900, 7.000000000000000000 ) ) ;
#289 = EDGE_CURVE ( 'NONE', #221, #135, #90, .T. ) ;
#290 = VERTEX_POINT ( 'NONE', #38 ) ;
#291 = VERTEX_POINT ( 'NONE', #57 ) ;
#292 = ORIENTED_EDGE ( 'NONE', *, *, #61, .F. ) ;
#293 = ORIENTED_EDGE ( 'NONE', *, *, #103, .T. ) ;
#294 = ORIENTED_EDGE ( 'NONE', *, *, #36, .T. ) ;
#295 = DIRECTION ( 'NONE',  ( 0.02129140789487412400, -0.9997733122812660900, 0.0000000000000000000 ) ) ;
#296 = DIRECTION ( 'NONE',  ( 0.02129140789487412400, -0.9997733122812660900, -0.0000000000000000000 ) ) ;
#297 = EDGE_CURVE ( 'NONE', #174, #236, #97, .T. ) ;
#298 = CARTESIAN_POINT ( 'NONE',  ( 20.29140535733864300, -0.4321305469112056700, -7.000000000000000000 ) ) ;
#299 = ADVANCED_FACE ( 'NONE', ( #47 ), #52, .F. ) ;
#300 =( LENGTH_UNIT ( ) NAMED_UNIT ( * ) SI_UNIT ( .MILLI., .METRE. ) );
#301 =( NAMED_UNIT ( * ) SI_UNIT ( $, .STERADIAN. ) SOLID_ANGLE_UNIT ( ) );
#302 = LINE ( 'NONE', #69, #262 ) ;
#303 = EDGE_CURVE ( 'NONE', #174, #245, #76, .T. ) ;
#304 = CARTESIAN_POINT ( 'NONE',  ( -21.49113333207615300, -0.4576802363850544000, -7.000000000000000000 ) ) ;
#305 = EDGE_CURVE ( 'NONE', #257, #290, #247, .T. ) ;
#306 = DIRECTION ( 'NONE',  ( 0.0000000000000000000, -0.0000000000000000000, 1.000000000000000000 ) ) ;
#307 = DIRECTION ( 'NONE',  ( 0.0000000000000000000, 1.000000000000000000, 0.0000000000000000000 ) ) ;
#308 = EDGE_CURVE ( 'NONE', #329, #291, #331, .T. ) ;
#309 = PLANE ( 'NONE',  #260 ) ;
#310 = EDGE_CURVE ( 'NONE', #291, #221, #55, .T. ) ;
#311 = DIRECTION ( 'NONE',  ( 0.02129140789487412400, -0.9997733122812660900, -0.0000000000000000000 ) ) ;
#312 = EDGE_LOOP ( 'NONE', ( #215, #175, #240, #203, #199, #186, #228, #190 ) ) ;
#313 = EDGE_CURVE ( 'NONE', #236, #230, #56, .T. ) ;
#314 = ORIENTED_EDGE ( 'NONE', *, *, #319, .F. ) ;
#315 = CARTESIAN_POINT ( 'NONE',  ( 0.0000000000000000000, 8.150000000000000400, -7.000000000000000000 ) ) ;
#316 = ADVANCED_FACE ( 'NONE', ( #54 ), #193, .F. ) ;
#317 =( NAMED_UNIT ( * ) SI_UNIT ( $, .STERADIAN. ) SOLID_ANGLE_UNIT ( ) );
#318 = DIRECTION ( 'NONE',  ( 0.0000000000000000000, 0.0000000000000000000, 1.000000000000000000 ) ) ;
#319 = EDGE_CURVE ( 'NONE', #135, #189, #64, .T. ) ;
#320 = DIRECTION ( 'NONE',  ( -0.0000000000000000000, -0.0000000000000000000, -1.000000000000000000 ) ) ;
#321 = EDGE_CURVE ( 'NONE', #111, #77, #70, .T. ) ;
#322 = ORIENTED_EDGE ( 'NONE', *, *, #75, .T. ) ;
#323 = CARTESIAN_POINT ( 'NONE',  ( -21.69999999999999600, -9.349999999999997900, 7.000000000000000000 ) ) ;
#324 = ORIENTED_EDGE ( 'NONE', *, *, #305, .T. ) ;
#325 = ORIENTED_EDGE ( 'NONE', *, *, #33, .T. ) ;
#326 = EDGE_CURVE ( 'NONE', #111, #270, #24, .T. ) ;
#327 = ORIENTED_EDGE ( 'NONE', *, *, #201, .T. ) ;
#328 = EDGE_CURVE ( 'NONE', #270, #160, #124, .T. ) ;
#329 = VERTEX_POINT ( 'NONE', #30 ) ;
#330 = EDGE_CURVE ( 'NONE', #160, #189, #63, .T. ) ;
#331 = LINE ( 'NONE', #53, #21 ) ;
#332 = CARTESIAN_POINT ( 'NONE',  ( -21.69999999999999600, -9.349999999999997900, 7.000000000000000000 ) ) ;
#333 = CARTESIAN_POINT ( 'NONE',  ( -21.69999999999999600, -9.349999999999997900, -7.000000000000000000 ) ) ;
#334 = CARTESIAN_POINT ( 'NONE',  ( 0.0000000000000000000, 0.0000000000000000000, 0.0000000000000000000 ) ) ;
ENDSEC;
END-ISO-10303-21;
