ISO-10303-21;
HEADER;
FILE_DESCRIPTION (( 'STEP AP214' ),
    '1' );
FILE_NAME ('6152082.stp',
    '2016-06-30T12:25:13',
    ( '' ),
    ( '' ),
    'SwSTEP 2.0',
    'SolidWorks 2014',
    '' );
FILE_SCHEMA (( 'AUTOMOTIVE_DESIGN' ));
ENDSEC;

DATA;
#1 = VECTOR ( 'NONE', #91, 1000.000000000000000 ) ;
#2 = VECTOR ( 'NONE', #291, 1000.000000000000000 ) ;
#3 = LINE ( 'NONE', #264, #232 ) ;
#4 = EDGE_LOOP ( 'NONE', ( #117, #189, #49, #61 ) ) ;
#5 =( NAMED_UNIT ( * ) SI_UNIT ( $, .STERADIAN. ) SOLID_ANGLE_UNIT ( ) );
#6 = VECTOR ( 'NONE', #44, 1000.000000000000000 ) ;
#7 = UNCERTAINTY_MEASURE_WITH_UNIT (LENGTH_MEASURE( 1.000000000000000100E-005 ), #287, 'distance_accuracy_value', 'NONE');
#8 =( NAMED_UNIT ( * ) PLANE_ANGLE_UNIT ( ) SI_UNIT ( $, .RADIAN. ) );
#9 = VECTOR ( 'NONE', #234, 1000.000000000000000 ) ;
#10 = LINE ( 'NONE', #319, #2 ) ;
#11 = LINE ( 'NONE', #165, #290 ) ;
#12 = FILL_AREA_STYLE_COLOUR ( '', #72 ) ;
#13 = ADVANCED_FACE ( 'NONE', ( #118 ), #249, .T. ) ;
#14 = DIRECTION ( 'NONE',  ( 1.000000000000000000, 0.0000000000000000000, 0.0000000000000000000 ) ) ;
#15 = FACE_OUTER_BOUND ( 'NONE', #41, .T. ) ;
#16 = VECTOR ( 'NONE', #129, 1000.000000000000000 ) ;
#17 = VECTOR ( 'NONE', #199, 1000.000000000000000 ) ;
#18 = AXIS2_PLACEMENT_3D ( 'NONE', #98, #14, #119 ) ;
#19 = FACE_OUTER_BOUND ( 'NONE', #103, .T. ) ;
#20 = VECTOR ( 'NONE', #265, 1000.000000000000000 ) ;
#21 = LINE ( 'NONE', #140, #6 ) ;
#22 = DIRECTION ( 'NONE',  ( 0.0000000000000000000, 1.000000000000000000, 0.0000000000000000000 ) ) ;
#23 = LINE ( 'NONE', #166, #17 ) ;
#24 = CARTESIAN_POINT ( 'NONE',  ( 0.0000000000000000000, 0.0000000000000000000, -7.000000000000000000 ) ) ;
#25 = VECTOR ( 'NONE', #262, 1000.000000000000000 ) ;
#26 = LINE ( 'NONE', #51, #25 ) ;
#27 = CARTESIAN_POINT ( 'NONE',  ( 20.50000000000000400, 0.0000000000000000000, 7.000000000000000000 ) ) ;
#28 = CARTESIAN_POINT ( 'NONE',  ( 20.50000000000000400, 12.14999999999999700, -7.000000000000000000 ) ) ;
#29 = LINE ( 'NONE', #208, #230 ) ;
#30 = LINE ( 'NONE', #67, #31 ) ;
#31 = VECTOR ( 'NONE', #71, 1000.000000000000000 ) ;
#32 = VECTOR ( 'NONE', #81, 1000.000000000000000 ) ;
#33 = VECTOR ( 'NONE', #22, 1000.000000000000000 ) ;
#34 =( LENGTH_UNIT ( ) NAMED_UNIT ( * ) SI_UNIT ( .MILLI., .METRE. ) );
#35 = DIRECTION ( 'NONE',  ( 0.0000000000000000000, -1.000000000000000000, 0.0000000000000000000 ) ) ;
#36 = LINE ( 'NONE', #257, #221 ) ;
#37 = CARTESIAN_POINT ( 'NONE',  ( 0.0000000000000000000, 0.0000000000000000000, 0.0000000000000000000 ) ) ;
#38 = VECTOR ( 'NONE', #125, 1000.000000000000000 ) ;
#39 = FILL_AREA_STYLE ('',( #12 ) ) ;
#40 = ORIENTED_EDGE ( 'NONE', *, *, #194, .F. ) ;
#41 = EDGE_LOOP ( 'NONE', ( #111, #40, #83, #303 ) ) ;
#42 = ORIENTED_EDGE ( 'NONE', *, *, #333, .F. ) ;
#43 = ADVANCED_FACE ( 'NONE', ( #63 ), #173, .T. ) ;
#44 = DIRECTION ( 'NONE',  ( -0.0000000000000000000, -1.000000000000000000, -0.0000000000000000000 ) ) ;
#45 = CLOSED_SHELL ( 'NONE', ( #238, #66, #43, #317, #136, #215, #116, #13, #192, #288 ) ) ;
#46 = EDGE_LOOP ( 'NONE', ( #142, #318, #157, #278 ) ) ;
#47 = CARTESIAN_POINT ( 'NONE',  ( -21.69999999999999600, -13.35000000000000100, 7.000000000000000000 ) ) ;
#48 = SHAPE_DEFINITION_REPRESENTATION ( #197, #96 ) ;
#49 = ORIENTED_EDGE ( 'NONE', *, *, #244, .T. ) ;
#50 = CARTESIAN_POINT ( 'NONE',  ( -20.49999999999999600, 12.14999999999999700, 7.000000000000000000 ) ) ;
#51 = CARTESIAN_POINT ( 'NONE',  ( 21.70000000000000300, -13.35000000000000100, 7.000000000000000000 ) ) ;
#52 = ORIENTED_EDGE ( 'NONE', *, *, #236, .T. ) ;
#53 = DIRECTION ( 'NONE',  ( 0.0000000000000000000, 0.0000000000000000000, -1.000000000000000000 ) ) ;
#54 = PRODUCT_RELATED_PRODUCT_CATEGORY ( 'part', '', ( #65 ) ) ;
#55 = ORIENTED_EDGE ( 'NONE', *, *, #242, .F. ) ;
#56 = ORIENTED_EDGE ( 'NONE', *, *, #327, .F. ) ;
#57 = VERTEX_POINT ( 'NONE', #144 ) ;
#58 =( GEOMETRIC_REPRESENTATION_CONTEXT ( 3 ) GLOBAL_UNCERTAINTY_ASSIGNED_CONTEXT ( ( #201 ) ) GLOBAL_UNIT_ASSIGNED_CONTEXT ( ( #34, #8, #5 ) ) REPRESENTATION_CONTEXT ( 'NONE', 'WORKASPACE' ) );
#59 = DIRECTION ( 'NONE',  ( 0.0000000000000000000, 0.0000000000000000000, -1.000000000000000000 ) ) ;
#60 = PRODUCT_DEFINITION_FORMATION_WITH_SPECIFIED_SOURCE ( 'ANY', '', #65, .NOT_KNOWN. ) ;
#61 = ORIENTED_EDGE ( 'NONE', *, *, #207, .T. ) ;
#62 = PLANE ( 'NONE',  #261 ) ;
#63 = FACE_OUTER_BOUND ( 'NONE', #126, .T. ) ;
#64 = VERTEX_POINT ( 'NONE', #80 ) ;
#65 = PRODUCT ( '6152082', '6152082', '', ( #235 ) ) ;
#66 = ADVANCED_FACE ( 'NONE', ( #320 ), #268, .F. ) ;
#67 = CARTESIAN_POINT ( 'NONE',  ( 20.50000000000000400, -13.35000000000000100, 7.000000000000000000 ) ) ;
#68 = DIRECTION ( 'NONE',  ( 1.000000000000000000, 0.0000000000000000000, 0.0000000000000000000 ) ) ;
#69 = LINE ( 'NONE', #27, #33 ) ;
#70 = ORIENTED_EDGE ( 'NONE', *, *, #228, .F. ) ;
#71 = DIRECTION ( 'NONE',  ( 0.0000000000000000000, 0.0000000000000000000, -1.000000000000000000 ) ) ;
#72 = COLOUR_RGB ( '',0.7529411764705882200, 0.7529411764705882200, 0.7529411764705882200 ) ;
#73 = EDGE_LOOP ( 'NONE', ( #254, #252, #55, #163 ) ) ;
#74 = ORIENTED_EDGE ( 'NONE', *, *, #325, .T. ) ;
#75 = DIRECTION ( 'NONE',  ( 1.000000000000000000, 0.0000000000000000000, 0.0000000000000000000 ) ) ;
#76 = CARTESIAN_POINT ( 'NONE',  ( 20.50000000000000400, -13.35000000000000100, 7.000000000000000000 ) ) ;
#77 = PLANE ( 'NONE',  #86 ) ;
#78 = EDGE_LOOP ( 'NONE', ( #260, #42, #276, #100 ) ) ;
#79 = ORIENTED_EDGE ( 'NONE', *, *, #216, .T. ) ;
#80 = CARTESIAN_POINT ( 'NONE',  ( -21.69999999999999600, -13.35000000000000100, 7.000000000000000000 ) ) ;
#81 = DIRECTION ( 'NONE',  ( -0.0000000000000000000, -0.0000000000000000000, -1.000000000000000000 ) ) ;
#82 = LINE ( 'NONE', #134, #275 ) ;
#83 = ORIENTED_EDGE ( 'NONE', *, *, #213, .T. ) ;
#84 = ORIENTED_EDGE ( 'NONE', *, *, #256, .T. ) ;
#85 = AXIS2_PLACEMENT_3D ( 'NONE', #241, #198, #195 ) ;
#86 = AXIS2_PLACEMENT_3D ( 'NONE', #250, #75, #53 ) ;
#87 = VERTEX_POINT ( 'NONE', #253 ) ;
#88 = CARTESIAN_POINT ( 'NONE',  ( -21.69999999999999600, 13.34999999999999800, -7.000000000000000000 ) ) ;
#89 = VERTEX_POINT ( 'NONE', #293 ) ;
#90 = CARTESIAN_POINT ( 'NONE',  ( -20.49999999999999600, 12.14999999999999700, 7.000000000000000000 ) ) ;
#91 = DIRECTION ( 'NONE',  ( 0.0000000000000000000, 0.0000000000000000000, -1.000000000000000000 ) ) ;
#92 = VECTOR ( 'NONE', #308, 1000.000000000000000 ) ;
#93 = CARTESIAN_POINT ( 'NONE',  ( 21.70000000000000300, 13.34999999999999800, 7.000000000000000000 ) ) ;
#94 = ORIENTED_EDGE ( 'NONE', *, *, #231, .F. ) ;
#95 = LINE ( 'NONE', #193, #108 ) ;
#96 = ADVANCED_BREP_SHAPE_REPRESENTATION ( '6152082', ( #178, #306 ), #58 ) ;
#97 = DIRECTION ( 'NONE',  ( 0.0000000000000000000, 1.000000000000000000, 0.0000000000000000000 ) ) ;
#98 = CARTESIAN_POINT ( 'NONE',  ( -20.49999999999999600, -13.35000000000000100, 7.000000000000000000 ) ) ;
#99 = FACE_OUTER_BOUND ( 'NONE', #4, .T. ) ;
#100 = ORIENTED_EDGE ( 'NONE', *, *, #334, .T. ) ;
#101 = CARTESIAN_POINT ( 'NONE',  ( 20.50000000000000400, 0.0000000000000000000, -7.000000000000000000 ) ) ;
#102 = CARTESIAN_POINT ( 'NONE',  ( -20.49999999999999600, -13.35000000000000100, -7.000000000000000000 ) ) ;
#103 = EDGE_LOOP ( 'NONE', ( #74, #56, #146, #200 ) ) ;
#104 = ORIENTED_EDGE ( 'NONE', *, *, #313, .T. ) ;
#105 = CARTESIAN_POINT ( 'NONE',  ( -20.49999999999999600, 12.14999999999999700, -7.000000000000000000 ) ) ;
#106 = CARTESIAN_POINT ( 'NONE',  ( -21.69999999999999600, 13.34999999999999800, 7.000000000000000000 ) ) ;
#107 = CARTESIAN_POINT ( 'NONE',  ( -21.69999999999999600, -13.35000000000000100, 7.000000000000000000 ) ) ;
#108 = VECTOR ( 'NONE', #139, 1000.000000000000000 ) ;
#109 = ORIENTED_EDGE ( 'NONE', *, *, #236, .F. ) ;
#110 = FACE_OUTER_BOUND ( 'NONE', #78, .T. ) ;
#111 = ORIENTED_EDGE ( 'NONE', *, *, #207, .F. ) ;
#112 = CARTESIAN_POINT ( 'NONE',  ( 20.50000000000000400, 12.14999999999999700, 7.000000000000000000 ) ) ;
#113 = DIRECTION ( 'NONE',  ( -1.000000000000000000, 0.0000000000000000000, 0.0000000000000000000 ) ) ;
#114 = DIRECTION ( 'NONE',  ( -0.0000000000000000000, -0.0000000000000000000, -1.000000000000000000 ) ) ;
#115 = APPLICATION_CONTEXT ( 'automotive_design' ) ;
#116 = ADVANCED_FACE ( 'NONE', ( #315 ), #251, .F. ) ;
#117 = ORIENTED_EDGE ( 'NONE', *, *, #313, .F. ) ;
#118 = FACE_OUTER_BOUND ( 'NONE', #180, .T. ) ;
#119 = DIRECTION ( 'NONE',  ( 0.0000000000000000000, 0.0000000000000000000, -1.000000000000000000 ) ) ;
#120 = PLANE ( 'NONE',  #18 ) ;
#121 = FACE_OUTER_BOUND ( 'NONE', #73, .T. ) ;
#122 = SURFACE_STYLE_FILL_AREA ( #324 ) ;
#123 = ORIENTED_EDGE ( 'NONE', *, *, #216, .F. ) ;
#124 = DIRECTION ( 'NONE',  ( -1.000000000000000000, 0.0000000000000000000, -0.0000000000000000000 ) ) ;
#125 = DIRECTION ( 'NONE',  ( 0.0000000000000000000, 1.000000000000000000, 0.0000000000000000000 ) ) ;
#126 = EDGE_LOOP ( 'NONE', ( #263, #84, #300, #104, #295, #304, #132, #301 ) ) ;
#127 = AXIS2_PLACEMENT_3D ( 'NONE', #247, #229, #227 ) ;
#128 = DIRECTION ( 'NONE',  ( 0.0000000000000000000, -0.0000000000000000000, -1.000000000000000000 ) ) ;
#129 = DIRECTION ( 'NONE',  ( 0.0000000000000000000, 0.0000000000000000000, -1.000000000000000000 ) ) ;
#130 = ORIENTED_EDGE ( 'NONE', *, *, #244, .F. ) ;
#131 = LINE ( 'NONE', #47, #20 ) ;
#132 = ORIENTED_EDGE ( 'NONE', *, *, #240, .F. ) ;
#133 =( GEOMETRIC_REPRESENTATION_CONTEXT ( 3 ) GLOBAL_UNCERTAINTY_ASSIGNED_CONTEXT ( ( #170 ) ) GLOBAL_UNIT_ASSIGNED_CONTEXT ( ( #298, #297, #273 ) ) REPRESENTATION_CONTEXT ( 'NONE', 'WORKASPACE' ) );
#134 = CARTESIAN_POINT ( 'NONE',  ( -21.69999999999999600, 13.34999999999999800, 7.000000000000000000 ) ) ;
#135 = VERTEX_POINT ( 'NONE', #204 ) ;
#136 = ADVANCED_FACE ( 'NONE', ( #316 ), #176, .F. ) ;
#137 = ORIENTED_EDGE ( 'NONE', *, *, #243, .T. ) ;
#138 = VERTEX_POINT ( 'NONE', #143 ) ;
#139 = DIRECTION ( 'NONE',  ( -1.000000000000000000, 0.0000000000000000000, 0.0000000000000000000 ) ) ;
#140 = CARTESIAN_POINT ( 'NONE',  ( -21.69999999999999600, -13.35000000000000100, 7.000000000000000000 ) ) ;
#141 = VERTEX_POINT ( 'NONE', #102 ) ;
#142 = ORIENTED_EDGE ( 'NONE', *, *, #240, .T. ) ;
#143 = CARTESIAN_POINT ( 'NONE',  ( 21.70000000000000300, 13.34999999999999800, -7.000000000000000000 ) ) ;
#144 = CARTESIAN_POINT ( 'NONE',  ( 20.50000000000000400, -13.35000000000000100, -7.000000000000000000 ) ) ;
#145 = CARTESIAN_POINT ( 'NONE',  ( 21.70000000000000300, -13.35000000000000100, 7.000000000000000000 ) ) ;
#146 = ORIENTED_EDGE ( 'NONE', *, *, #209, .F. ) ;
#147 = DIRECTION ( 'NONE',  ( 0.0000000000000000000, 0.0000000000000000000, -1.000000000000000000 ) ) ;
#148 = MECHANICAL_DESIGN_GEOMETRIC_PRESENTATION_REPRESENTATION (  '', ( #164 ), #133 ) ;
#149 = CARTESIAN_POINT ( 'NONE',  ( -20.49999999999999600, -13.35000000000000100, 7.000000000000000000 ) ) ;
#150 = DIRECTION ( 'NONE',  ( 1.000000000000000000, 0.0000000000000000000, 0.0000000000000000000 ) ) ;
#151 = PRODUCT_DEFINITION_CONTEXT ( 'detailed design', #233, 'design' ) ;
#152 = PRESENTATION_LAYER_ASSIGNMENT (  '', '', ( #164 ) ) ;
#153 = LINE ( 'NONE', #258, #9 ) ;
#154 = VERTEX_POINT ( 'NONE', #106 ) ;
#155 = AXIS2_PLACEMENT_3D ( 'NONE', #202, #174, #128 ) ;
#156 = ORIENTED_EDGE ( 'NONE', *, *, #248, .F. ) ;
#157 = ORIENTED_EDGE ( 'NONE', *, *, #243, .F. ) ;
#158 = VERTEX_POINT ( 'NONE', #50 ) ;
#159 = DIRECTION ( 'NONE',  ( 1.000000000000000000, 0.0000000000000000000, 0.0000000000000000000 ) ) ;
#160 = CARTESIAN_POINT ( 'NONE',  ( 21.70000000000000300, -13.35000000000000100, 7.000000000000000000 ) ) ;
#161 = VECTOR ( 'NONE', #97, 1000.000000000000000 ) ;
#162 = LINE ( 'NONE', #172, #203 ) ;
#163 = ORIENTED_EDGE ( 'NONE', *, *, #331, .T. ) ;
#164 = STYLED_ITEM ( 'NONE', ( #314 ), #178 ) ;
#165 = CARTESIAN_POINT ( 'NONE',  ( -21.69999999999999600, -13.35000000000000100, -7.000000000000000000 ) ) ;
#166 = CARTESIAN_POINT ( 'NONE',  ( -21.69999999999999600, 13.34999999999999800, -7.000000000000000000 ) ) ;
#167 = AXIS2_PLACEMENT_3D ( 'NONE', #222, #225, #224 ) ;
#168 = LINE ( 'NONE', #101, #161 ) ;
#169 = LINE ( 'NONE', #149, #16 ) ;
#170 = UNCERTAINTY_MEASURE_WITH_UNIT (LENGTH_MEASURE( 1.000000000000000100E-005 ), #298, 'distance_accuracy_value', 'NONE');
#171 = VERTEX_POINT ( 'NONE', #332 ) ;
#172 = CARTESIAN_POINT ( 'NONE',  ( -21.69999999999999600, -13.35000000000000100, 7.000000000000000000 ) ) ;
#173 = PLANE ( 'NONE',  #184 ) ;
#174 = DIRECTION ( 'NONE',  ( 0.0000000000000000000, -1.000000000000000000, 0.0000000000000000000 ) ) ;
#175 = DIRECTION ( 'NONE',  ( -1.000000000000000000, 0.0000000000000000000, 0.0000000000000000000 ) ) ;
#176 = PLANE ( 'NONE',  #155 ) ;
#177 = CARTESIAN_POINT ( 'NONE',  ( 21.70000000000000300, -13.35000000000000100, -7.000000000000000000 ) ) ;
#178 = MANIFOLD_SOLID_BREP ( 'Shell3', #45 ) ;
#179 = VERTEX_POINT ( 'NONE', #105 ) ;
#180 = EDGE_LOOP ( 'NONE', ( #271, #94, #79, #277 ) ) ;
#181 = ORIENTED_EDGE ( 'NONE', *, *, #231, .T. ) ;
#182 = AXIS2_PLACEMENT_3D ( 'NONE', #245, #226, #223 ) ;
#183 = CARTESIAN_POINT ( 'NONE',  ( -21.69999999999999600, -13.35000000000000100, -7.000000000000000000 ) ) ;
#184 = AXIS2_PLACEMENT_3D ( 'NONE', #24, #147, #124 ) ;
#185 = DIRECTION ( 'NONE',  ( -0.0000000000000000000, -0.0000000000000000000, -1.000000000000000000 ) ) ;
#186 = VERTEX_POINT ( 'NONE', #328 ) ;
#187 = AXIS2_PLACEMENT_3D ( 'NONE', #76, #175, #269 ) ;
#188 = APPLICATION_PROTOCOL_DEFINITION ( 'draft international standard', 'automotive_design', 1998, #115 ) ;
#189 = ORIENTED_EDGE ( 'NONE', *, *, #334, .F. ) ;
#190 = VECTOR ( 'NONE', #185, 1000.000000000000000 ) ;
#191 = COLOUR_RGB ( '',0.7529411764705882200, 0.7529411764705882200, 0.7529411764705882200 ) ;
#192 = ADVANCED_FACE ( 'NONE', ( #110 ), #272, .T. ) ;
#193 = CARTESIAN_POINT ( 'NONE',  ( 0.0000000000000000000, 12.14999999999999700, 7.000000000000000000 ) ) ;
#194 = EDGE_CURVE ( 'NONE', #64, #171, #162, .T. ) ;
#195 = DIRECTION ( 'NONE',  ( 0.0000000000000000000, -0.0000000000000000000, 1.000000000000000000 ) ) ;
#196 = VERTEX_POINT ( 'NONE', #177 ) ;
#197 = PRODUCT_DEFINITION_SHAPE ( 'NONE', 'NONE',  #307 ) ;
#198 = DIRECTION ( 'NONE',  ( 0.0000000000000000000, 1.000000000000000000, 0.0000000000000000000 ) ) ;
#199 = DIRECTION ( 'NONE',  ( -1.000000000000000000, -0.0000000000000000000, -0.0000000000000000000 ) ) ;
#200 = ORIENTED_EDGE ( 'NONE', *, *, #228, .T. ) ;
#201 = UNCERTAINTY_MEASURE_WITH_UNIT (LENGTH_MEASURE( 1.000000000000000100E-005 ), #34, 'distance_accuracy_value', 'NONE');
#202 = CARTESIAN_POINT ( 'NONE',  ( -21.69999999999999600, 13.34999999999999800, 7.000000000000000000 ) ) ;
#203 = VECTOR ( 'NONE', #150, 1000.000000000000000 ) ;
#204 = CARTESIAN_POINT ( 'NONE',  ( 21.70000000000000300, -13.35000000000000100, 7.000000000000000000 ) ) ;
#205 = SURFACE_STYLE_FILL_AREA ( #39 ) ;
#206 = ORIENTED_EDGE ( 'NONE', *, *, #242, .T. ) ;
#207 = EDGE_CURVE ( 'NONE', #171, #141, #169, .T. ) ;
#208 = CARTESIAN_POINT ( 'NONE',  ( -20.49999999999999600, 0.0000000000000000000, -7.000000000000000000 ) ) ;
#209 = EDGE_CURVE ( 'NONE', #135, #294, #218, .T. ) ;
#210 = CARTESIAN_POINT ( 'NONE',  ( 21.70000000000000300, 13.34999999999999800, 7.000000000000000000 ) ) ;
#211 = LINE ( 'NONE', #90, #266 ) ;
#212 = EDGE_LOOP ( 'NONE', ( #109, #181, #239, #70 ) ) ;
#213 = EDGE_CURVE ( 'NONE', #64, #186, #270, .T. ) ;
#214 = APPLICATION_PROTOCOL_DEFINITION ( 'draft international standard', 'automotive_design', 1998, #233 ) ;
#215 = ADVANCED_FACE ( 'NONE', ( #121 ), #77, .F. ) ;
#216 = EDGE_CURVE ( 'NONE', #89, #87, #69, .T. ) ;
#217 = VERTEX_POINT ( 'NONE', #28 ) ;
#218 = LINE ( 'NONE', #145, #38 ) ;
#219 = DIRECTION ( 'NONE',  ( 0.0000000000000000000, -1.000000000000000000, 0.0000000000000000000 ) ) ;
#220 = PLANE ( 'NONE',  #85 ) ;
#221 = VECTOR ( 'NONE', #113, 1000.000000000000000 ) ;
#222 = CARTESIAN_POINT ( 'NONE',  ( -21.69999999999999600, -13.35000000000000100, 7.000000000000000000 ) ) ;
#223 = DIRECTION ( 'NONE',  ( -1.000000000000000000, 0.0000000000000000000, -0.0000000000000000000 ) ) ;
#224 = DIRECTION ( 'NONE',  ( 0.0000000000000000000, -0.0000000000000000000, 1.000000000000000000 ) ) ;
#225 = DIRECTION ( 'NONE',  ( 0.0000000000000000000, 1.000000000000000000, 0.0000000000000000000 ) ) ;
#226 = DIRECTION ( 'NONE',  ( 0.0000000000000000000, 0.0000000000000000000, -1.000000000000000000 ) ) ;
#227 = DIRECTION ( 'NONE',  ( 0.0000000000000000000, -0.0000000000000000000, -1.000000000000000000 ) ) ;
#228 = EDGE_CURVE ( 'NONE', #135, #196, #26, .T. ) ;
#229 = DIRECTION ( 'NONE',  ( 0.0000000000000000000, -1.000000000000000000, 0.0000000000000000000 ) ) ;
#230 = VECTOR ( 'NONE', #35, 1000.000000000000000 ) ;
#231 = EDGE_CURVE ( 'NONE', #89, #57, #30, .T. ) ;
#232 = VECTOR ( 'NONE', #219, 1000.000000000000000 ) ;
#233 = APPLICATION_CONTEXT ( 'automotive_design' ) ;
#234 = DIRECTION ( 'NONE',  ( 0.0000000000000000000, 1.000000000000000000, 0.0000000000000000000 ) ) ;
#235 = PRODUCT_CONTEXT ( 'NONE', #115, 'mechanical' ) ;
#236 = EDGE_CURVE ( 'NONE', #89, #135, #131, .T. ) ;
#237 = DIRECTION ( 'NONE',  ( 1.000000000000000000, 0.0000000000000000000, 0.0000000000000000000 ) ) ;
#238 = ADVANCED_FACE ( 'NONE', ( #15 ), #220, .F. ) ;
#239 = ORIENTED_EDGE ( 'NONE', *, *, #255, .T. ) ;
#240 = EDGE_CURVE ( 'NONE', #138, #305, #23, .T. ) ;
#241 = CARTESIAN_POINT ( 'NONE',  ( -21.69999999999999600, -13.35000000000000100, 7.000000000000000000 ) ) ;
#242 = EDGE_CURVE ( 'NONE', #154, #64, #21, .T. ) ;
#243 = EDGE_CURVE ( 'NONE', #294, #154, #10, .T. ) ;
#244 = EDGE_CURVE ( 'NONE', #158, #171, #3, .T. ) ;
#245 = CARTESIAN_POINT ( 'NONE',  ( 0.0000000000000000000, 0.0000000000000000000, 7.000000000000000000 ) ) ;
#246 = PRESENTATION_STYLE_ASSIGNMENT (( #311 ) ) ;
#247 = CARTESIAN_POINT ( 'NONE',  ( -21.69999999999999600, 12.14999999999999700, 7.000000000000000000 ) ) ;
#248 = EDGE_CURVE ( 'NONE', #87, #158, #95, .T. ) ;
#249 = PLANE ( 'NONE',  #187 ) ;
#250 = CARTESIAN_POINT ( 'NONE',  ( -21.69999999999999600, -13.35000000000000100, 7.000000000000000000 ) ) ;
#251 = PLANE ( 'NONE',  #167 ) ;
#252 = ORIENTED_EDGE ( 'NONE', *, *, #213, .F. ) ;
#253 = CARTESIAN_POINT ( 'NONE',  ( 20.50000000000000400, 12.14999999999999700, 7.000000000000000000 ) ) ;
#254 = ORIENTED_EDGE ( 'NONE', *, *, #323, .T. ) ;
#255 = EDGE_CURVE ( 'NONE', #57, #196, #11, .T. ) ;
#256 = EDGE_CURVE ( 'NONE', #57, #217, #168, .T. ) ;
#257 = CARTESIAN_POINT ( 'NONE',  ( 0.0000000000000000000, 12.14999999999999700, -7.000000000000000000 ) ) ;
#258 = CARTESIAN_POINT ( 'NONE',  ( 21.70000000000000300, -13.35000000000000100, -7.000000000000000000 ) ) ;
#259 = DIRECTION ( 'NONE',  ( 0.0000000000000000000, 0.0000000000000000000, 1.000000000000000000 ) ) ;
#260 = ORIENTED_EDGE ( 'NONE', *, *, #310, .F. ) ;
#261 = AXIS2_PLACEMENT_3D ( 'NONE', #160, #281, #280 ) ;
#262 = DIRECTION ( 'NONE',  ( -0.0000000000000000000, -0.0000000000000000000, -1.000000000000000000 ) ) ;
#263 = ORIENTED_EDGE ( 'NONE', *, *, #255, .F. ) ;
#264 = CARTESIAN_POINT ( 'NONE',  ( -20.49999999999999600, 0.0000000000000000000, 7.000000000000000000 ) ) ;
#265 = DIRECTION ( 'NONE',  ( 1.000000000000000000, 0.0000000000000000000, 0.0000000000000000000 ) ) ;
#266 = VECTOR ( 'NONE', #59, 1000.000000000000000 ) ;
#267 = LINE ( 'NONE', #112, #1 ) ;
#268 = PLANE ( 'NONE',  #182 ) ;
#269 = DIRECTION ( 'NONE',  ( 0.0000000000000000000, 0.0000000000000000000, 1.000000000000000000 ) ) ;
#270 = LINE ( 'NONE', #107, #32 ) ;
#271 = ORIENTED_EDGE ( 'NONE', *, *, #256, .F. ) ;
#272 = PLANE ( 'NONE',  #127 ) ;
#273 =( NAMED_UNIT ( * ) SI_UNIT ( $, .STERADIAN. ) SOLID_ANGLE_UNIT ( ) );
#274 = STYLED_ITEM ( 'NONE', ( #246 ), #96 ) ;
#275 = VECTOR ( 'NONE', #114, 1000.000000000000000 ) ;
#276 = ORIENTED_EDGE ( 'NONE', *, *, #248, .T. ) ;
#277 = ORIENTED_EDGE ( 'NONE', *, *, #333, .T. ) ;
#278 = ORIENTED_EDGE ( 'NONE', *, *, #327, .T. ) ;
#279 = CARTESIAN_POINT ( 'NONE',  ( -21.69999999999999600, -13.35000000000000100, -7.000000000000000000 ) ) ;
#280 = DIRECTION ( 'NONE',  ( 0.0000000000000000000, 0.0000000000000000000, 1.000000000000000000 ) ) ;
#281 = DIRECTION ( 'NONE',  ( -1.000000000000000000, 0.0000000000000000000, 0.0000000000000000000 ) ) ;
#282 =( NAMED_UNIT ( * ) SI_UNIT ( $, .STERADIAN. ) SOLID_ANGLE_UNIT ( ) );
#283 = LINE ( 'NONE', #279, #92 ) ;
#284 = ORIENTED_EDGE ( 'NONE', *, *, #209, .T. ) ;
#285 = PRESENTATION_LAYER_ASSIGNMENT (  '', '', ( #274 ) ) ;
#286 =( NAMED_UNIT ( * ) PLANE_ANGLE_UNIT ( ) SI_UNIT ( $, .RADIAN. ) );
#287 =( LENGTH_UNIT ( ) NAMED_UNIT ( * ) SI_UNIT ( .MILLI., .METRE. ) );
#288 = ADVANCED_FACE ( 'NONE', ( #99 ), #120, .T. ) ;
#289 = MECHANICAL_DESIGN_GEOMETRIC_PRESENTATION_REPRESENTATION (  '', ( #274 ), #292 ) ;
#290 = VECTOR ( 'NONE', #68, 1000.000000000000000 ) ;
#291 = DIRECTION ( 'NONE',  ( -1.000000000000000000, -0.0000000000000000000, -0.0000000000000000000 ) ) ;
#292 =( GEOMETRIC_REPRESENTATION_CONTEXT ( 3 ) GLOBAL_UNCERTAINTY_ASSIGNED_CONTEXT ( ( #7 ) ) GLOBAL_UNIT_ASSIGNED_CONTEXT ( ( #287, #286, #282 ) ) REPRESENTATION_CONTEXT ( 'NONE', 'WORKASPACE' ) );
#293 = CARTESIAN_POINT ( 'NONE',  ( 20.50000000000000400, -13.35000000000000100, 7.000000000000000000 ) ) ;
#294 = VERTEX_POINT ( 'NONE', #93 ) ;
#295 = ORIENTED_EDGE ( 'NONE', *, *, #330, .F. ) ;
#296 = ORIENTED_EDGE ( 'NONE', *, *, #194, .T. ) ;
#297 =( NAMED_UNIT ( * ) PLANE_ANGLE_UNIT ( ) SI_UNIT ( $, .RADIAN. ) );
#298 =( LENGTH_UNIT ( ) NAMED_UNIT ( * ) SI_UNIT ( .MILLI., .METRE. ) );
#299 = SURFACE_STYLE_USAGE ( .BOTH. , #302 ) ;
#300 = ORIENTED_EDGE ( 'NONE', *, *, #310, .T. ) ;
#301 = ORIENTED_EDGE ( 'NONE', *, *, #325, .F. ) ;
#302 = SURFACE_SIDE_STYLE ('',( #122 ) ) ;
#303 = ORIENTED_EDGE ( 'NONE', *, *, #330, .T. ) ;
#304 = ORIENTED_EDGE ( 'NONE', *, *, #323, .F. ) ;
#305 = VERTEX_POINT ( 'NONE', #88 ) ;
#306 = AXIS2_PLACEMENT_3D ( 'NONE', #37, #259, #237 ) ;
#307 = PRODUCT_DEFINITION ( 'UNKNOWN', '', #60, #151 ) ;
#308 = DIRECTION ( 'NONE',  ( -0.0000000000000000000, -1.000000000000000000, -0.0000000000000000000 ) ) ;
#309 = EDGE_LOOP ( 'NONE', ( #123, #52, #284, #137, #206, #296, #130, #156 ) ) ;
#310 = EDGE_CURVE ( 'NONE', #217, #179, #36, .T. ) ;
#311 = SURFACE_STYLE_USAGE ( .BOTH. , #312 ) ;
#312 = SURFACE_SIDE_STYLE ('',( #205 ) ) ;
#313 = EDGE_CURVE ( 'NONE', #179, #141, #29, .T. ) ;
#314 = PRESENTATION_STYLE_ASSIGNMENT (( #299 ) ) ;
#315 = FACE_OUTER_BOUND ( 'NONE', #212, .T. ) ;
#316 = FACE_OUTER_BOUND ( 'NONE', #46, .T. ) ;
#317 = ADVANCED_FACE ( 'NONE', ( #19 ), #62, .F. ) ;
#318 = ORIENTED_EDGE ( 'NONE', *, *, #331, .F. ) ;
#319 = CARTESIAN_POINT ( 'NONE',  ( -21.69999999999999600, 13.34999999999999800, 7.000000000000000000 ) ) ;
#320 = FACE_OUTER_BOUND ( 'NONE', #309, .T. ) ;
#321 = LINE ( 'NONE', #183, #322 ) ;
#322 = VECTOR ( 'NONE', #159, 1000.000000000000000 ) ;
#323 = EDGE_CURVE ( 'NONE', #305, #186, #283, .T. ) ;
#324 = FILL_AREA_STYLE ('',( #326 ) ) ;
#325 = EDGE_CURVE ( 'NONE', #196, #138, #153, .T. ) ;
#326 = FILL_AREA_STYLE_COLOUR ( '', #191 ) ;
#327 = EDGE_CURVE ( 'NONE', #294, #138, #329, .T. ) ;
#328 = CARTESIAN_POINT ( 'NONE',  ( -21.69999999999999600, -13.35000000000000100, -7.000000000000000000 ) ) ;
#329 = LINE ( 'NONE', #210, #190 ) ;
#330 = EDGE_CURVE ( 'NONE', #186, #141, #321, .T. ) ;
#331 = EDGE_CURVE ( 'NONE', #154, #305, #82, .T. ) ;
#332 = CARTESIAN_POINT ( 'NONE',  ( -20.49999999999999600, -13.35000000000000100, 7.000000000000000000 ) ) ;
#333 = EDGE_CURVE ( 'NONE', #87, #217, #267, .T. ) ;
#334 = EDGE_CURVE ( 'NONE', #158, #179, #211, .T. ) ;
ENDSEC;
END-ISO-10303-21;
