ISO-10303-21;
HEADER;
FILE_DESCRIPTION (( 'STEP AP214' ),
    '1' );
FILE_NAME ('6152104.stp',
    '2016-06-30T11:26:29',
    ( '' ),
    ( '' ),
    'SwSTEP 2.0',
    'SolidWorks 2014',
    '' );
FILE_SCHEMA (( 'AUTOMOTIVE_DESIGN' ));
ENDSEC;

DATA;
#1 = EDGE_CURVE ( 'NONE', #9, #299, #246, .T. ) ;
#2 = ORIENTED_EDGE ( 'NONE', *, *, #265, .F. ) ;
#3 = EDGE_CURVE ( 'NONE', #87, #138, #39, .T. ) ;
#4 = EDGE_LOOP ( 'NONE', ( #13, #33, #149, #311 ) ) ;
#5 = CARTESIAN_POINT ( 'NONE',  ( 0.0000000000000000000, 0.0000000000000000000, -7.000000000000000000 ) ) ;
#6 = LINE ( 'NONE', #10, #15 ) ;
#7 = PRODUCT ( '6152104', '6152104', '', ( #228 ) ) ;
#8 = PRODUCT_DEFINITION_FORMATION_WITH_SPECIFIED_SOURCE ( 'ANY', '', #7, .NOT_KNOWN. ) ;
#9 = VERTEX_POINT ( 'NONE', #73 ) ;
#10 = CARTESIAN_POINT ( 'NONE',  ( -26.69999999999999900, -10.90000000000000000, -7.000000000000000000 ) ) ;
#11 = CARTESIAN_POINT ( 'NONE',  ( 26.69999999999999900, -10.90000000000000000, 7.000000000000000000 ) ) ;
#12 = DIRECTION ( 'NONE',  ( -0.0000000000000000000, -1.000000000000000000, -0.0000000000000000000 ) ) ;
#13 = ORIENTED_EDGE ( 'NONE', *, *, #273, .F. ) ;
#14 = EDGE_LOOP ( 'NONE', ( #46, #90, #21, #244 ) ) ;
#15 = VECTOR ( 'NONE', #12, 1000.000000000000000 ) ;
#16 = DIRECTION ( 'NONE',  ( 1.000000000000000000, 0.0000000000000000000, 0.0000000000000000000 ) ) ;
#17 = EDGE_CURVE ( 'NONE', #299, #86, #177, .T. ) ;
#18 = DIRECTION ( 'NONE',  ( 0.0000000000000000000, -0.0000000000000000000, 1.000000000000000000 ) ) ;
#19 = ADVANCED_FACE ( 'NONE', ( #123 ), #325, .F. ) ;
#20 = DIRECTION ( 'NONE',  ( 0.0000000000000000000, 0.0000000000000000000, -1.000000000000000000 ) ) ;
#21 = ORIENTED_EDGE ( 'NONE', *, *, #230, .F. ) ;
#22 = DIRECTION ( 'NONE',  ( 0.0000000000000000000, 1.000000000000000000, 0.0000000000000000000 ) ) ;
#23 = DIRECTION ( 'NONE',  ( -0.0000000000000000000, -0.0000000000000000000, -1.000000000000000000 ) ) ;
#24 =( NAMED_UNIT ( * ) PLANE_ANGLE_UNIT ( ) SI_UNIT ( $, .RADIAN. ) );
#25 = VERTEX_POINT ( 'NONE', #322 ) ;
#26 = LINE ( 'NONE', #245, #91 ) ;
#27 = VERTEX_POINT ( 'NONE', #220 ) ;
#28 = PRODUCT_DEFINITION_SHAPE ( 'NONE', 'NONE',  #30 ) ;
#29 = ORIENTED_EDGE ( 'NONE', *, *, #95, .F. ) ;
#30 = PRODUCT_DEFINITION ( 'UNKNOWN', '', #8, #277 ) ;
#31 = COLOUR_RGB ( '',0.7529411764705882200, 0.7529411764705882200, 0.7529411764705882200 ) ;
#32 = DIRECTION ( 'NONE',  ( 0.0000000000000000000, 0.0000000000000000000, -1.000000000000000000 ) ) ;
#33 = ORIENTED_EDGE ( 'NONE', *, *, #298, .F. ) ;
#34 = LINE ( 'NONE', #255, #237 ) ;
#35 = VERTEX_POINT ( 'NONE', #248 ) ;
#36 = ORIENTED_EDGE ( 'NONE', *, *, #17, .F. ) ;
#37 = ORIENTED_EDGE ( 'NONE', *, *, #328, .T. ) ;
#38 = VECTOR ( 'NONE', #221, 1000.000000000000000 ) ;
#39 = LINE ( 'NONE', #321, #312 ) ;
#40 = DIRECTION ( 'NONE',  ( 0.0000000000000000000, 1.000000000000000000, 0.0000000000000000000 ) ) ;
#41 = EDGE_CURVE ( 'NONE', #304, #195, #34, .T. ) ;
#42 = CARTESIAN_POINT ( 'NONE',  ( -26.69999999999999900, -10.90000000000000000, 7.000000000000000000 ) ) ;
#43 = AXIS2_PLACEMENT_3D ( 'NONE', #79, #211, #56 ) ;
#44 = UNCERTAINTY_MEASURE_WITH_UNIT (LENGTH_MEASURE( 1.000000000000000100E-005 ), #164, 'distance_accuracy_value', 'NONE');
#45 = DIRECTION ( 'NONE',  ( 0.0000000000000000000, 0.0000000000000000000, -1.000000000000000000 ) ) ;
#46 = ORIENTED_EDGE ( 'NONE', *, *, #319, .T. ) ;
#47 = CARTESIAN_POINT ( 'NONE',  ( 25.19999999999999600, -10.90000000000000000, 7.000000000000000000 ) ) ;
#48 = ADVANCED_FACE ( 'NONE', ( #300 ), #204, .T. ) ;
#49 = CARTESIAN_POINT ( 'NONE',  ( 26.69999999999999900, -10.90000000000000000, -7.000000000000000000 ) ) ;
#50 = ORIENTED_EDGE ( 'NONE', *, *, #242, .T. ) ;
#51 = LINE ( 'NONE', #302, #59 ) ;
#52 = CARTESIAN_POINT ( 'NONE',  ( 25.19999999999999600, 9.400000000000000400, 7.000000000000000000 ) ) ;
#53 = CARTESIAN_POINT ( 'NONE',  ( -26.69999999999999900, -10.90000000000000000, 7.000000000000000000 ) ) ;
#54 = PLANE ( 'NONE',  #119 ) ;
#55 = DIRECTION ( 'NONE',  ( 0.0000000000000000000, -1.000000000000000000, 0.0000000000000000000 ) ) ;
#56 = DIRECTION ( 'NONE',  ( 1.000000000000000000, 0.0000000000000000000, 0.0000000000000000000 ) ) ;
#57 = EDGE_LOOP ( 'NONE', ( #114, #231, #112, #60 ) ) ;
#58 = ORIENTED_EDGE ( 'NONE', *, *, #41, .F. ) ;
#59 = VECTOR ( 'NONE', #323, 1000.000000000000000 ) ;
#60 = ORIENTED_EDGE ( 'NONE', *, *, #41, .T. ) ;
#61 = ORIENTED_EDGE ( 'NONE', *, *, #222, .F. ) ;
#62 = EDGE_LOOP ( 'NONE', ( #284, #183, #291, #83, #50, #267, #207, #29 ) ) ;
#63 = LINE ( 'NONE', #258, #196 ) ;
#64 =( GEOMETRIC_REPRESENTATION_CONTEXT ( 3 ) GLOBAL_UNCERTAINTY_ASSIGNED_CONTEXT ( ( #44 ) ) GLOBAL_UNIT_ASSIGNED_CONTEXT ( ( #164, #332, #189 ) ) REPRESENTATION_CONTEXT ( 'NONE', 'WORKASPACE' ) );
#65 = ORIENTED_EDGE ( 'NONE', *, *, #294, .F. ) ;
#66 = FACE_OUTER_BOUND ( 'NONE', #275, .T. ) ;
#67 = MECHANICAL_DESIGN_GEOMETRIC_PRESENTATION_REPRESENTATION (  '', ( #107 ), #64 ) ;
#68 = CARTESIAN_POINT ( 'NONE',  ( -25.19999999999999600, 0.0000000000000000000, 7.000000000000000000 ) ) ;
#69 = DIRECTION ( 'NONE',  ( -1.000000000000000000, -0.0000000000000000000, -0.0000000000000000000 ) ) ;
#70 = CLOSED_SHELL ( 'NONE', ( #133, #251, #223, #103, #159, #205, #19, #278, #327, #48 ) ) ;
#71 = CARTESIAN_POINT ( 'NONE',  ( -26.69999999999999900, -10.90000000000000000, -7.000000000000000000 ) ) ;
#72 = VECTOR ( 'NONE', #180, 1000.000000000000000 ) ;
#73 = CARTESIAN_POINT ( 'NONE',  ( -26.69999999999999900, -10.90000000000000000, 7.000000000000000000 ) ) ;
#74 = EDGE_CURVE ( 'NONE', #27, #35, #317, .T. ) ;
#75 = EDGE_CURVE ( 'NONE', #9, #239, #99, .T. ) ;
#76 = DIRECTION ( 'NONE',  ( -1.000000000000000000, 0.0000000000000000000, 0.0000000000000000000 ) ) ;
#77 = PLANE ( 'NONE',  #174 ) ;
#78 = PRESENTATION_LAYER_ASSIGNMENT (  '', '', ( #107 ) ) ;
#79 = CARTESIAN_POINT ( 'NONE',  ( 0.0000000000000000000, 0.0000000000000000000, 0.0000000000000000000 ) ) ;
#80 = DIRECTION ( 'NONE',  ( 0.0000000000000000000, 0.0000000000000000000, 1.000000000000000000 ) ) ;
#81 = APPLICATION_CONTEXT ( 'automotive_design' ) ;
#82 = EDGE_CURVE ( 'NONE', #27, #304, #171, .T. ) ;
#83 = ORIENTED_EDGE ( 'NONE', *, *, #234, .T. ) ;
#84 = ORIENTED_EDGE ( 'NONE', *, *, #282, .T. ) ;
#85 = FACE_OUTER_BOUND ( 'NONE', #14, .T. ) ;
#86 = VERTEX_POINT ( 'NONE', #151 ) ;
#87 = VERTEX_POINT ( 'NONE', #152 ) ;
#88 = DIRECTION ( 'NONE',  ( 0.0000000000000000000, -0.0000000000000000000, -1.000000000000000000 ) ) ;
#89 = PLANE ( 'NONE',  #150 ) ;
#90 = ORIENTED_EDGE ( 'NONE', *, *, #328, .F. ) ;
#91 = VECTOR ( 'NONE', #137, 1000.000000000000000 ) ;
#92 = EDGE_CURVE ( 'NONE', #261, #115, #218, .T. ) ;
#93 = ORIENTED_EDGE ( 'NONE', *, *, #3, .F. ) ;
#94 = PRESENTATION_STYLE_ASSIGNMENT (( #135 ) ) ;
#95 = EDGE_CURVE ( 'NONE', #304, #214, #26, .T. ) ;
#96 = DIRECTION ( 'NONE',  ( -1.000000000000000000, 0.0000000000000000000, 0.0000000000000000000 ) ) ;
#97 = PLANE ( 'NONE',  #193 ) ;
#98 = VERTEX_POINT ( 'NONE', #129 ) ;
#99 = LINE ( 'NONE', #187, #292 ) ;
#100 = CARTESIAN_POINT ( 'NONE',  ( -26.69999999999999900, 10.90000000000000000, 7.000000000000000000 ) ) ;
#101 = DIRECTION ( 'NONE',  ( 0.0000000000000000000, -1.000000000000000000, 0.0000000000000000000 ) ) ;
#102 = CARTESIAN_POINT ( 'NONE',  ( -26.69999999999999900, 10.90000000000000000, -7.000000000000000000 ) ) ;
#103 = ADVANCED_FACE ( 'NONE', ( #85 ), #97, .F. ) ;
#104 = ORIENTED_EDGE ( 'NONE', *, *, #294, .T. ) ;
#105 = FILL_AREA_STYLE ('',( #254 ) ) ;
#106 = VECTOR ( 'NONE', #326, 1000.000000000000000 ) ;
#107 = STYLED_ITEM ( 'NONE', ( #122 ), #108 ) ;
#108 = ADVANCED_BREP_SHAPE_REPRESENTATION ( '6152104', ( #310, #43 ), #127 ) ;
#109 = DIRECTION ( 'NONE',  ( 0.0000000000000000000, -0.0000000000000000000, -1.000000000000000000 ) ) ;
#110 = CARTESIAN_POINT ( 'NONE',  ( -26.69999999999999900, 10.90000000000000000, -7.000000000000000000 ) ) ;
#111 = FILL_AREA_STYLE_COLOUR ( '', #233 ) ;
#112 = ORIENTED_EDGE ( 'NONE', *, *, #82, .T. ) ;
#113 = VECTOR ( 'NONE', #274, 1000.000000000000000 ) ;
#114 = ORIENTED_EDGE ( 'NONE', *, *, #266, .F. ) ;
#115 = VERTEX_POINT ( 'NONE', #110 ) ;
#116 = EDGE_LOOP ( 'NONE', ( #176, #175, #285, #295 ) ) ;
#117 = ORIENTED_EDGE ( 'NONE', *, *, #1, .F. ) ;
#118 = VECTOR ( 'NONE', #101, 1000.000000000000000 ) ;
#119 = AXIS2_PLACEMENT_3D ( 'NONE', #226, #256, #109 ) ;
#120 = CARTESIAN_POINT ( 'NONE',  ( -26.69999999999999900, -10.90000000000000000, 7.000000000000000000 ) ) ;
#121 = EDGE_CURVE ( 'NONE', #214, #239, #155, .T. ) ;
#122 = PRESENTATION_STYLE_ASSIGNMENT (( #308 ) ) ;
#123 = FACE_OUTER_BOUND ( 'NONE', #216, .T. ) ;
#124 = ORIENTED_EDGE ( 'NONE', *, *, #95, .T. ) ;
#125 = LINE ( 'NONE', #158, #118 ) ;
#126 = PRODUCT_RELATED_PRODUCT_CATEGORY ( 'part', '', ( #7 ) ) ;
#127 =( GEOMETRIC_REPRESENTATION_CONTEXT ( 3 ) GLOBAL_UNCERTAINTY_ASSIGNED_CONTEXT ( ( #241 ) ) GLOBAL_UNIT_ASSIGNED_CONTEXT ( ( #188, #24, #209 ) ) REPRESENTATION_CONTEXT ( 'NONE', 'WORKASPACE' ) );
#128 = ORIENTED_EDGE ( 'NONE', *, *, #298, .T. ) ;
#129 = CARTESIAN_POINT ( 'NONE',  ( 26.69999999999999900, 10.90000000000000000, 7.000000000000000000 ) ) ;
#130 = ORIENTED_EDGE ( 'NONE', *, *, #74, .T. ) ;
#131 = DIRECTION ( 'NONE',  ( -0.0000000000000000000, -0.0000000000000000000, -1.000000000000000000 ) ) ;
#132 = LINE ( 'NONE', #301, #72 ) ;
#133 = ADVANCED_FACE ( 'NONE', ( #213 ), #77, .F. ) ;
#134 = CARTESIAN_POINT ( 'NONE',  ( 26.69999999999999900, -10.90000000000000000, 7.000000000000000000 ) ) ;
#135 = SURFACE_STYLE_USAGE ( .BOTH. , #280 ) ;
#136 =( GEOMETRIC_REPRESENTATION_CONTEXT ( 3 ) GLOBAL_UNCERTAINTY_ASSIGNED_CONTEXT ( ( #293 ) ) GLOBAL_UNIT_ASSIGNED_CONTEXT ( ( #306, #162, #329 ) ) REPRESENTATION_CONTEXT ( 'NONE', 'WORKASPACE' ) );
#137 = DIRECTION ( 'NONE',  ( -1.000000000000000000, 0.0000000000000000000, 0.0000000000000000000 ) ) ;
#138 = VERTEX_POINT ( 'NONE', #49 ) ;
#139 = SURFACE_SIDE_STYLE ('',( #268 ) ) ;
#140 = MECHANICAL_DESIGN_GEOMETRIC_PRESENTATION_REPRESENTATION (  '', ( #145 ), #136 ) ;
#141 = PRESENTATION_LAYER_ASSIGNMENT (  '', '', ( #145 ) ) ;
#142 = VECTOR ( 'NONE', #289, 1000.000000000000000 ) ;
#143 = CARTESIAN_POINT ( 'NONE',  ( -26.69999999999999900, -10.90000000000000000, 7.000000000000000000 ) ) ;
#144 = AXIS2_PLACEMENT_3D ( 'NONE', #47, #76, #250 ) ;
#145 = STYLED_ITEM ( 'NONE', ( #94 ), #310 ) ;
#146 = ORIENTED_EDGE ( 'NONE', *, *, #266, .T. ) ;
#147 = FACE_OUTER_BOUND ( 'NONE', #333, .T. ) ;
#148 = AXIS2_PLACEMENT_3D ( 'NONE', #154, #45, #219 ) ;
#149 = ORIENTED_EDGE ( 'NONE', *, *, #121, .T. ) ;
#150 = AXIS2_PLACEMENT_3D ( 'NONE', #5, #235, #318 ) ;
#151 = CARTESIAN_POINT ( 'NONE',  ( -25.19999999999999600, -10.90000000000000000, -7.000000000000000000 ) ) ;
#152 = CARTESIAN_POINT ( 'NONE',  ( 26.69999999999999900, -10.90000000000000000, 7.000000000000000000 ) ) ;
#153 = ORIENTED_EDGE ( 'NONE', *, *, #265, .T. ) ;
#154 = CARTESIAN_POINT ( 'NONE',  ( 0.0000000000000000000, 0.0000000000000000000, 7.000000000000000000 ) ) ;
#155 = LINE ( 'NONE', #68, #276 ) ;
#156 = CARTESIAN_POINT ( 'NONE',  ( -26.69999999999999900, 10.90000000000000000, 7.000000000000000000 ) ) ;
#157 = EDGE_CURVE ( 'NONE', #115, #299, #6, .T. ) ;
#158 = CARTESIAN_POINT ( 'NONE',  ( -25.19999999999999600, 0.0000000000000000000, -7.000000000000000000 ) ) ;
#159 = ADVANCED_FACE ( 'NONE', ( #334 ), #287, .F. ) ;
#160 = CARTESIAN_POINT ( 'NONE',  ( 0.0000000000000000000, 9.400000000000000400, -7.000000000000000000 ) ) ;
#161 = DIRECTION ( 'NONE',  ( 0.0000000000000000000, 1.000000000000000000, 0.0000000000000000000 ) ) ;
#162 =( NAMED_UNIT ( * ) PLANE_ANGLE_UNIT ( ) SI_UNIT ( $, .RADIAN. ) );
#163 = CARTESIAN_POINT ( 'NONE',  ( 26.69999999999999900, 10.90000000000000000, 7.000000000000000000 ) ) ;
#164 =( LENGTH_UNIT ( ) NAMED_UNIT ( * ) SI_UNIT ( .MILLI., .METRE. ) );
#165 = AXIS2_PLACEMENT_3D ( 'NONE', #120, #170, #32 ) ;
#166 = ORIENTED_EDGE ( 'NONE', *, *, #157, .T. ) ;
#167 = VECTOR ( 'NONE', #161, 1000.000000000000000 ) ;
#168 = ORIENTED_EDGE ( 'NONE', *, *, #319, .F. ) ;
#169 = VECTOR ( 'NONE', #330, 1000.000000000000000 ) ;
#170 = DIRECTION ( 'NONE',  ( 1.000000000000000000, 0.0000000000000000000, 0.0000000000000000000 ) ) ;
#171 = LINE ( 'NONE', #186, #167 ) ;
#172 = AXIS2_PLACEMENT_3D ( 'NONE', #232, #263, #88 ) ;
#173 = LINE ( 'NONE', #279, #297 ) ;
#174 = AXIS2_PLACEMENT_3D ( 'NONE', #42, #40, #18 ) ;
#175 = ORIENTED_EDGE ( 'NONE', *, *, #75, .F. ) ;
#176 = ORIENTED_EDGE ( 'NONE', *, *, #243, .F. ) ;
#177 = LINE ( 'NONE', #307, #113 ) ;
#178 = CARTESIAN_POINT ( 'NONE',  ( 26.69999999999999900, 10.90000000000000000, -7.000000000000000000 ) ) ;
#179 = DIRECTION ( 'NONE',  ( 1.000000000000000000, 0.0000000000000000000, 0.0000000000000000000 ) ) ;
#180 = DIRECTION ( 'NONE',  ( 0.0000000000000000000, 0.0000000000000000000, -1.000000000000000000 ) ) ;
#181 = CARTESIAN_POINT ( 'NONE',  ( 25.19999999999999600, -10.90000000000000000, 7.000000000000000000 ) ) ;
#182 = DIRECTION ( 'NONE',  ( 0.0000000000000000000, 0.0000000000000000000, -1.000000000000000000 ) ) ;
#183 = ORIENTED_EDGE ( 'NONE', *, *, #222, .T. ) ;
#184 = CARTESIAN_POINT ( 'NONE',  ( -26.69999999999999900, -10.90000000000000000, -7.000000000000000000 ) ) ;
#185 = LINE ( 'NONE', #102, #38 ) ;
#186 = CARTESIAN_POINT ( 'NONE',  ( 25.19999999999999600, 0.0000000000000000000, 7.000000000000000000 ) ) ;
#187 = CARTESIAN_POINT ( 'NONE',  ( -26.69999999999999900, -10.90000000000000000, 7.000000000000000000 ) ) ;
#188 =( LENGTH_UNIT ( ) NAMED_UNIT ( * ) SI_UNIT ( .MILLI., .METRE. ) );
#189 =( NAMED_UNIT ( * ) SI_UNIT ( $, .STERADIAN. ) SOLID_ANGLE_UNIT ( ) );
#190 = VECTOR ( 'NONE', #23, 1000.000000000000000 ) ;
#191 = LINE ( 'NONE', #71, #314 ) ;
#192 = CARTESIAN_POINT ( 'NONE',  ( -26.69999999999999900, -10.90000000000000000, 7.000000000000000000 ) ) ;
#193 = AXIS2_PLACEMENT_3D ( 'NONE', #134, #96, #80 ) ;
#194 = ORIENTED_EDGE ( 'NONE', *, *, #242, .F. ) ;
#195 = VERTEX_POINT ( 'NONE', #257 ) ;
#196 = VECTOR ( 'NONE', #69, 1000.000000000000000 ) ;
#197 = AXIS2_PLACEMENT_3D ( 'NONE', #208, #199, #198 ) ;
#198 = DIRECTION ( 'NONE',  ( 0.0000000000000000000, 0.0000000000000000000, -1.000000000000000000 ) ) ;
#199 = DIRECTION ( 'NONE',  ( 1.000000000000000000, 0.0000000000000000000, 0.0000000000000000000 ) ) ;
#200 = DIRECTION ( 'NONE',  ( 0.0000000000000000000, 1.000000000000000000, 0.0000000000000000000 ) ) ;
#201 = PLANE ( 'NONE',  #148 ) ;
#202 = VECTOR ( 'NONE', #200, 1000.000000000000000 ) ;
#203 = PLANE ( 'NONE',  #144 ) ;
#204 = PLANE ( 'NONE',  #197 ) ;
#205 = ADVANCED_FACE ( 'NONE', ( #147 ), #315, .F. ) ;
#206 = DIRECTION ( 'NONE',  ( 0.0000000000000000000, 0.0000000000000000000, -1.000000000000000000 ) ) ;
#207 = ORIENTED_EDGE ( 'NONE', *, *, #121, .F. ) ;
#208 = CARTESIAN_POINT ( 'NONE',  ( -25.19999999999999600, -10.90000000000000000, 7.000000000000000000 ) ) ;
#209 =( NAMED_UNIT ( * ) SI_UNIT ( $, .STERADIAN. ) SOLID_ANGLE_UNIT ( ) );
#210 = VECTOR ( 'NONE', #22, 1000.000000000000000 ) ;
#211 = DIRECTION ( 'NONE',  ( 0.0000000000000000000, 0.0000000000000000000, 1.000000000000000000 ) ) ;
#212 = AXIS2_PLACEMENT_3D ( 'NONE', #272, #253, #249 ) ;
#213 = FACE_OUTER_BOUND ( 'NONE', #116, .T. ) ;
#214 = VERTEX_POINT ( 'NONE', #316 ) ;
#215 = FACE_OUTER_BOUND ( 'NONE', #238, .T. ) ;
#216 = EDGE_LOOP ( 'NONE', ( #61, #130, #153, #93 ) ) ;
#217 = CARTESIAN_POINT ( 'NONE',  ( -25.19999999999999600, -10.90000000000000000, 7.000000000000000000 ) ) ;
#218 = LINE ( 'NONE', #156, #286 ) ;
#219 = DIRECTION ( 'NONE',  ( -1.000000000000000000, 0.0000000000000000000, -0.0000000000000000000 ) ) ;
#220 = CARTESIAN_POINT ( 'NONE',  ( 25.19999999999999600, -10.90000000000000000, 7.000000000000000000 ) ) ;
#221 = DIRECTION ( 'NONE',  ( -1.000000000000000000, -0.0000000000000000000, -0.0000000000000000000 ) ) ;
#222 = EDGE_CURVE ( 'NONE', #27, #87, #270, .T. ) ;
#223 = ADVANCED_FACE ( 'NONE', ( #215 ), #89, .T. ) ;
#224 = CARTESIAN_POINT ( 'NONE',  ( 26.69999999999999900, -10.90000000000000000, -7.000000000000000000 ) ) ;
#225 = SURFACE_STYLE_FILL_AREA ( #105 ) ;
#226 = CARTESIAN_POINT ( 'NONE',  ( -26.69999999999999900, 9.400000000000000400, 7.000000000000000000 ) ) ;
#227 = APPLICATION_PROTOCOL_DEFINITION ( 'draft international standard', 'automotive_design', 1998, #259 ) ;
#228 = PRODUCT_CONTEXT ( 'NONE', #259, 'mechanical' ) ;
#229 = VECTOR ( 'NONE', #182, 1000.000000000000000 ) ;
#230 = EDGE_CURVE ( 'NONE', #87, #98, #324, .T. ) ;
#231 = ORIENTED_EDGE ( 'NONE', *, *, #74, .F. ) ;
#232 = CARTESIAN_POINT ( 'NONE',  ( -26.69999999999999900, 10.90000000000000000, 7.000000000000000000 ) ) ;
#233 = COLOUR_RGB ( '',0.7529411764705882200, 0.7529411764705882200, 0.7529411764705882200 ) ;
#234 = EDGE_CURVE ( 'NONE', #98, #261, #63, .T. ) ;
#235 = DIRECTION ( 'NONE',  ( 0.0000000000000000000, 0.0000000000000000000, -1.000000000000000000 ) ) ;
#236 = VERTEX_POINT ( 'NONE', #178 ) ;
#237 = VECTOR ( 'NONE', #206, 1000.000000000000000 ) ;
#238 = EDGE_LOOP ( 'NONE', ( #2, #146, #104, #288, #36, #264, #281, #168 ) ) ;
#239 = VERTEX_POINT ( 'NONE', #217 ) ;
#240 = LINE ( 'NONE', #160, #106 ) ;
#241 = UNCERTAINTY_MEASURE_WITH_UNIT (LENGTH_MEASURE( 1.000000000000000100E-005 ), #188, 'distance_accuracy_value', 'NONE');
#242 = EDGE_CURVE ( 'NONE', #261, #9, #320, .T. ) ;
#243 = EDGE_CURVE ( 'NONE', #239, #86, #132, .T. ) ;
#244 = ORIENTED_EDGE ( 'NONE', *, *, #3, .T. ) ;
#245 = CARTESIAN_POINT ( 'NONE',  ( 0.0000000000000000000, 9.400000000000000400, 7.000000000000000000 ) ) ;
#246 = LINE ( 'NONE', #53, #190 ) ;
#247 = DIRECTION ( 'NONE',  ( -0.0000000000000000000, -1.000000000000000000, -0.0000000000000000000 ) ) ;
#248 = CARTESIAN_POINT ( 'NONE',  ( 25.19999999999999600, -10.90000000000000000, -7.000000000000000000 ) ) ;
#249 = DIRECTION ( 'NONE',  ( 0.0000000000000000000, -0.0000000000000000000, 1.000000000000000000 ) ) ;
#250 = DIRECTION ( 'NONE',  ( 0.0000000000000000000, 0.0000000000000000000, 1.000000000000000000 ) ) ;
#251 = ADVANCED_FACE ( 'NONE', ( #262 ), #201, .F. ) ;
#252 = VECTOR ( 'NONE', #247, 1000.000000000000000 ) ;
#253 = DIRECTION ( 'NONE',  ( 0.0000000000000000000, 1.000000000000000000, 0.0000000000000000000 ) ) ;
#254 = FILL_AREA_STYLE_COLOUR ( '', #31 ) ;
#255 = CARTESIAN_POINT ( 'NONE',  ( 25.19999999999999600, 9.400000000000000400, 7.000000000000000000 ) ) ;
#256 = DIRECTION ( 'NONE',  ( 0.0000000000000000000, -1.000000000000000000, 0.0000000000000000000 ) ) ;
#257 = CARTESIAN_POINT ( 'NONE',  ( 25.19999999999999600, 9.400000000000000400, -7.000000000000000000 ) ) ;
#258 = CARTESIAN_POINT ( 'NONE',  ( -26.69999999999999900, 10.90000000000000000, 7.000000000000000000 ) ) ;
#259 = APPLICATION_CONTEXT ( 'automotive_design' ) ;
#260 = APPLICATION_PROTOCOL_DEFINITION ( 'draft international standard', 'automotive_design', 1998, #81 ) ;
#261 = VERTEX_POINT ( 'NONE', #100 ) ;
#262 = FACE_OUTER_BOUND ( 'NONE', #62, .T. ) ;
#263 = DIRECTION ( 'NONE',  ( 0.0000000000000000000, -1.000000000000000000, 0.0000000000000000000 ) ) ;
#264 = ORIENTED_EDGE ( 'NONE', *, *, #157, .F. ) ;
#265 = EDGE_CURVE ( 'NONE', #35, #138, #191, .T. ) ;
#266 = EDGE_CURVE ( 'NONE', #35, #195, #51, .T. ) ;
#267 = ORIENTED_EDGE ( 'NONE', *, *, #75, .T. ) ;
#268 = SURFACE_STYLE_FILL_AREA ( #283 ) ;
#269 = ORIENTED_EDGE ( 'NONE', *, *, #92, .F. ) ;
#270 = LINE ( 'NONE', #143, #142 ) ;
#271 = LINE ( 'NONE', #224, #210 ) ;
#272 = CARTESIAN_POINT ( 'NONE',  ( -26.69999999999999900, -10.90000000000000000, 7.000000000000000000 ) ) ;
#273 = EDGE_CURVE ( 'NONE', #25, #86, #125, .T. ) ;
#274 = DIRECTION ( 'NONE',  ( 1.000000000000000000, 0.0000000000000000000, 0.0000000000000000000 ) ) ;
#275 = EDGE_LOOP ( 'NONE', ( #65, #58, #124, #128 ) ) ;
#276 = VECTOR ( 'NONE', #55, 1000.000000000000000 ) ;
#277 = PRODUCT_DEFINITION_CONTEXT ( 'detailed design', #81, 'design' ) ;
#278 = ADVANCED_FACE ( 'NONE', ( #305 ), #203, .T. ) ;
#279 = CARTESIAN_POINT ( 'NONE',  ( -25.19999999999999600, 9.399999999999998600, 7.000000000000000000 ) ) ;
#280 = SURFACE_SIDE_STYLE ('',( #225 ) ) ;
#281 = ORIENTED_EDGE ( 'NONE', *, *, #282, .F. ) ;
#282 = EDGE_CURVE ( 'NONE', #236, #115, #185, .T. ) ;
#283 = FILL_AREA_STYLE ('',( #111 ) ) ;
#284 = ORIENTED_EDGE ( 'NONE', *, *, #82, .F. ) ;
#285 = ORIENTED_EDGE ( 'NONE', *, *, #1, .T. ) ;
#286 = VECTOR ( 'NONE', #131, 1000.000000000000000 ) ;
#287 = PLANE ( 'NONE',  #172 ) ;
#288 = ORIENTED_EDGE ( 'NONE', *, *, #273, .T. ) ;
#289 = DIRECTION ( 'NONE',  ( 1.000000000000000000, 0.0000000000000000000, 0.0000000000000000000 ) ) ;
#290 = SHAPE_DEFINITION_REPRESENTATION ( #28, #108 ) ;
#291 = ORIENTED_EDGE ( 'NONE', *, *, #230, .T. ) ;
#292 = VECTOR ( 'NONE', #179, 1000.000000000000000 ) ;
#293 = UNCERTAINTY_MEASURE_WITH_UNIT (LENGTH_MEASURE( 1.000000000000000100E-005 ), #306, 'distance_accuracy_value', 'NONE');
#294 = EDGE_CURVE ( 'NONE', #195, #25, #240, .T. ) ;
#295 = ORIENTED_EDGE ( 'NONE', *, *, #17, .T. ) ;
#296 = EDGE_LOOP ( 'NONE', ( #84, #269, #309, #37 ) ) ;
#297 = VECTOR ( 'NONE', #20, 1000.000000000000000 ) ;
#298 = EDGE_CURVE ( 'NONE', #214, #25, #173, .T. ) ;
#299 = VERTEX_POINT ( 'NONE', #184 ) ;
#300 = FACE_OUTER_BOUND ( 'NONE', #4, .T. ) ;
#301 = CARTESIAN_POINT ( 'NONE',  ( -25.19999999999999600, -10.90000000000000000, 7.000000000000000000 ) ) ;
#302 = CARTESIAN_POINT ( 'NONE',  ( 25.19999999999999600, 0.0000000000000000000, -7.000000000000000000 ) ) ;
#303 = DIRECTION ( 'NONE',  ( -0.0000000000000000000, -0.0000000000000000000, -1.000000000000000000 ) ) ;
#304 = VERTEX_POINT ( 'NONE', #52 ) ;
#305 = FACE_OUTER_BOUND ( 'NONE', #57, .T. ) ;
#306 =( LENGTH_UNIT ( ) NAMED_UNIT ( * ) SI_UNIT ( .MILLI., .METRE. ) );
#307 = CARTESIAN_POINT ( 'NONE',  ( -26.69999999999999900, -10.90000000000000000, -7.000000000000000000 ) ) ;
#308 = SURFACE_STYLE_USAGE ( .BOTH. , #139 ) ;
#309 = ORIENTED_EDGE ( 'NONE', *, *, #234, .F. ) ;
#310 = MANIFOLD_SOLID_BREP ( 'Shell3', #70 ) ;
#311 = ORIENTED_EDGE ( 'NONE', *, *, #243, .T. ) ;
#312 = VECTOR ( 'NONE', #303, 1000.000000000000000 ) ;
#313 = ORIENTED_EDGE ( 'NONE', *, *, #92, .T. ) ;
#314 = VECTOR ( 'NONE', #16, 1000.000000000000000 ) ;
#315 = PLANE ( 'NONE',  #165 ) ;
#316 = CARTESIAN_POINT ( 'NONE',  ( -25.19999999999999600, 9.400000000000000400, 7.000000000000000000 ) ) ;
#317 = LINE ( 'NONE', #181, #229 ) ;
#318 = DIRECTION ( 'NONE',  ( -1.000000000000000000, 0.0000000000000000000, -0.0000000000000000000 ) ) ;
#319 = EDGE_CURVE ( 'NONE', #138, #236, #271, .T. ) ;
#320 = LINE ( 'NONE', #192, #252 ) ;
#321 = CARTESIAN_POINT ( 'NONE',  ( 26.69999999999999900, -10.90000000000000000, 7.000000000000000000 ) ) ;
#322 = CARTESIAN_POINT ( 'NONE',  ( -25.19999999999999600, 9.400000000000000400, -7.000000000000000000 ) ) ;
#323 = DIRECTION ( 'NONE',  ( 0.0000000000000000000, 1.000000000000000000, 0.0000000000000000000 ) ) ;
#324 = LINE ( 'NONE', #11, #202 ) ;
#325 = PLANE ( 'NONE',  #212 ) ;
#326 = DIRECTION ( 'NONE',  ( -1.000000000000000000, 0.0000000000000000000, 0.0000000000000000000 ) ) ;
#327 = ADVANCED_FACE ( 'NONE', ( #66 ), #54, .T. ) ;
#328 = EDGE_CURVE ( 'NONE', #98, #236, #331, .T. ) ;
#329 =( NAMED_UNIT ( * ) SI_UNIT ( $, .STERADIAN. ) SOLID_ANGLE_UNIT ( ) );
#330 = DIRECTION ( 'NONE',  ( -0.0000000000000000000, -0.0000000000000000000, -1.000000000000000000 ) ) ;
#331 = LINE ( 'NONE', #163, #169 ) ;
#332 =( NAMED_UNIT ( * ) PLANE_ANGLE_UNIT ( ) SI_UNIT ( $, .RADIAN. ) );
#333 = EDGE_LOOP ( 'NONE', ( #166, #117, #194, #313 ) ) ;
#334 = FACE_OUTER_BOUND ( 'NONE', #296, .T. ) ;
ENDSEC;
END-ISO-10303-21;
