ISO-10303-21;
HEADER;
FILE_DESCRIPTION (( 'STEP AP214' ),
    '1' );
FILE_NAME ('6153607.STEP',
    '2016-06-28T14:00:28',
    ( '' ),
    ( '' ),
    'SwSTEP 2.0',
    'SolidWorks 2014',
    '' );
FILE_SCHEMA (( 'AUTOMOTIVE_DESIGN' ));
ENDSEC;

DATA;
#1 = CARTESIAN_POINT ( 'NONE',  ( 5.599999999999999600, 4.649999999999999500, -15.01015673618313800 ) ) ;
#2 = APPLICATION_PROTOCOL_DEFINITION ( 'draft international standard', 'automotive_design', 1998, #247 ) ;
#3 =( NAMED_UNIT ( * ) SI_UNIT ( $, .STERADIAN. ) SOLID_ANGLE_UNIT ( ) );
#4 =( NAMED_UNIT ( * ) PLANE_ANGLE_UNIT ( ) SI_UNIT ( $, .RADIAN. ) );
#5 =( LENGTH_UNIT ( ) NAMED_UNIT ( * ) SI_UNIT ( .MILLI., .METRE. ) );
#6 = CARTESIAN_POINT ( 'NONE',  ( 0.0000000000000000000, 0.0000000000000000000, 0.0000000000000000000 ) ) ;
#7 = DIRECTION ( 'NONE',  ( 0.0000000000000000000, 0.0000000000000000000, -1.000000000000000000 ) ) ;
#8 = CARTESIAN_POINT ( 'NONE',  ( -5.499937834500955500, 5.849999999999997900, 16.30000000000000100 ) ) ;
#9 = CARTESIAN_POINT ( 'NONE',  ( 5.599999999999999600, -5.849999999999999600, -15.09995611547714700 ) ) ;
#10 = DIRECTION ( 'NONE',  ( -0.0000000000000000000, -0.0000000000000000000, -1.000000000000000000 ) ) ;
#11 = DIRECTION ( 'NONE',  ( -1.000000000000000000, -1.548860246407863600E-016, 0.0000000000000000000 ) ) ;
#12 = LINE ( 'NONE', #83, #220 ) ;
#13 = CARTESIAN_POINT ( 'NONE',  ( -5.499937834500955500, 5.849999999999997900, 16.19993783450095400 ) ) ;
#14 = CARTESIAN_POINT ( 'NONE',  ( 5.599999999999999600, -5.849999999999999600, 16.30000000000000100 ) ) ;
#15 = CARTESIAN_POINT ( 'NONE',  ( 5.599999999999997900, 5.849999999999999600, 16.19993783450095400 ) ) ;
#16 = PRODUCT_DEFINITION_FORMATION_WITH_SPECIFIED_SOURCE ( 'ANY', '', #264, .NOT_KNOWN. ) ;
#17 = CARTESIAN_POINT ( 'NONE',  ( -4.399956115477150900, -5.850000000000001400, 16.30000000000000100 ) ) ;
#18 = CARTESIAN_POINT ( 'NONE',  ( -4.399312564600687200, -5.774751326167332400, -15.09931256460068900 ) ) ;
#19 = DIRECTION ( 'NONE',  ( 1.000000000000000000, 1.548860246407863800E-016, 0.0000000000000000000 ) ) ;
#20 = DIRECTION ( 'NONE',  ( 1.548860246407863800E-016, -1.000000000000000000, 0.0000000000000000000 ) ) ;
#21 = PRODUCT_DEFINITION ( 'UNKNOWN', '', #16, #281 ) ;
#22 = CARTESIAN_POINT ( 'NONE',  ( 5.599999999999999600, -5.849999999999999600, 16.30000000000000100 ) ) ;
#23 = DIRECTION ( 'NONE',  ( 0.0000000000000000000, -0.9999634309016398600, 0.008552009086826840200 ) ) ;
#24 = AXIS2_PLACEMENT_3D ( 'NONE', #6, #332, #193 ) ;
#25 = DIRECTION ( 'NONE',  ( -1.324586690150490900E-018, 0.008552009086826841900, 0.9999634309016399700 ) ) ;
#26 = CARTESIAN_POINT ( 'NONE',  ( 5.599999999999999600, 4.649999999999999500, 16.30000000000000100 ) ) ;
#27 = PLANE ( 'NONE',  #56 ) ;
#28 = ORIENTED_EDGE ( 'NONE', *, *, #214, .F. ) ;
#29 = ORIENTED_EDGE ( 'NONE', *, *, #268, .F. ) ;
#30 = FILL_AREA_STYLE_COLOUR ( '', #266 ) ;
#31 = DIRECTION ( 'NONE',  ( -0.008552009086826685800, -0.9999634309016398600, 0.0000000000000000000 ) ) ;
#32 = VECTOR ( 'NONE', #221, 1000.000000000000000 ) ;
#33 = DIRECTION ( 'NONE',  ( -0.9999634309016399700, 0.008552009086826687500, 0.0000000000000000000 ) ) ;
#34 = CARTESIAN_POINT ( 'NONE',  ( 5.599999999999999600, -5.860262410904191200, 15.10004388291803500 ) ) ;
#35 =( GEOMETRIC_REPRESENTATION_CONTEXT ( 3 ) GLOBAL_UNCERTAINTY_ASSIGNED_CONTEXT ( ( #158 ) ) GLOBAL_UNIT_ASSIGNED_CONTEXT ( ( #242, #165, #297 ) ) REPRESENTATION_CONTEXT ( 'NONE', 'WORKASPACE' ) );
#36 = MECHANICAL_DESIGN_GEOMETRIC_PRESENTATION_REPRESENTATION (  '', ( #51 ), #35 ) ;
#37 = PRESENTATION_LAYER_ASSIGNMENT (  '', '', ( #51 ) ) ;
#38 = VERTEX_POINT ( 'NONE', #169 ) ;
#39 = FACE_OUTER_BOUND ( 'NONE', #134, .T. ) ;
#40 = APPLICATION_PROTOCOL_DEFINITION ( 'draft international standard', 'automotive_design', 1998, #197 ) ;
#41 = ORIENTED_EDGE ( 'NONE', *, *, #313, .T. ) ;
#42 = PLANE ( 'NONE',  #69 ) ;
#43 = VERTEX_POINT ( 'NONE', #63 ) ;
#44 = DIRECTION ( 'NONE',  ( -0.008552009086826685800, -0.9999634309016398600, 0.0000000000000000000 ) ) ;
#45 = ORIENTED_EDGE ( 'NONE', *, *, #175, .F. ) ;
#46 = ORIENTED_EDGE ( 'NONE', *, *, #251, .F. ) ;
#47 = DIRECTION ( 'NONE',  ( -0.9999634309016399700, 0.008552009086826687500, 0.0000000000000000000 ) ) ;
#48 = CARTESIAN_POINT ( 'NONE',  ( -5.599999999999999600, -5.850000000000001400, 16.30000000000000100 ) ) ;
#49 = DIRECTION ( 'NONE',  ( 0.008551696370436727400, 0.9999268658148834400, -0.008551696370436883500 ) ) ;
#50 = CARTESIAN_POINT ( 'NONE',  ( -4.399312564600687200, -5.774751326167332400, 15.09931256460068900 ) ) ;
#51 = STYLED_ITEM ( 'NONE', ( #285 ), #291 ) ;
#52 = PRESENTATION_STYLE_ASSIGNMENT (( #149 ) ) ;
#53 = PLANE ( 'NONE',  #80 ) ;
#54 = VERTEX_POINT ( 'NONE', #219 ) ;
#55 = DIRECTION ( 'NONE',  ( 0.0000000000000000000, 0.9999634309016398600, 0.008552009086826840200 ) ) ;
#56 = AXIS2_PLACEMENT_3D ( 'NONE', #26, #20, #19 ) ;
#57 = DIRECTION ( 'NONE',  ( -1.324586690150490900E-018, 0.008552009086826841900, -0.9999634309016399700 ) ) ;
#58 =( GEOMETRIC_REPRESENTATION_CONTEXT ( 3 ) GLOBAL_UNCERTAINTY_ASSIGNED_CONTEXT ( ( #248 ) ) GLOBAL_UNIT_ASSIGNED_CONTEXT ( ( #5, #4, #3 ) ) REPRESENTATION_CONTEXT ( 'NONE', 'WORKASPACE' ) );
#59 = VECTOR ( 'NONE', #271, 1000.000000000000100 ) ;
#60 = VECTOR ( 'NONE', #116, 1000.000000000000000 ) ;
#61 = VECTOR ( 'NONE', #161, 1000.000000000000000 ) ;
#62 = DIRECTION ( 'NONE',  ( 0.008551696370436727400, 0.9999268658148834400, -0.008551696370436883500 ) ) ;
#63 = CARTESIAN_POINT ( 'NONE',  ( 5.599999999999999600, 4.649999999999999500, 15.01015673618313800 ) ) ;
#64 = LINE ( 'NONE', #15, #235 ) ;
#65 = PRODUCT_RELATED_PRODUCT_CATEGORY ( 'part', '', ( #264 ) ) ;
#66 = CARTESIAN_POINT ( 'NONE',  ( -5.599180927078904800, -5.754228005370176600, 16.29918092707890800 ) ) ;
#67 = ORIENTED_EDGE ( 'NONE', *, *, #170, .F. ) ;
#68 = CARTESIAN_POINT ( 'NONE',  ( 5.599999999999999600, -5.860262410904191200, -15.10004388291803500 ) ) ;
#69 = AXIS2_PLACEMENT_3D ( 'NONE', #34, #25, #23 ) ;
#70 = CARTESIAN_POINT ( 'NONE',  ( -4.400043882918032200, -5.860262410904193000, 16.30000000000000100 ) ) ;
#71 = PLANE ( 'NONE',  #215 ) ;
#72 = DIRECTION ( 'NONE',  ( 1.548860246407863800E-016, -1.000000000000000000, 0.0000000000000000000 ) ) ;
#73 = DIRECTION ( 'NONE',  ( -1.000000000000000000, -1.548860246407863800E-016, -1.926070806006015600E-034 ) ) ;
#74 = DIRECTION ( 'NONE',  ( -1.000000000000000000, -1.548860246407863800E-016, -1.926070806006015600E-034 ) ) ;
#75 = CARTESIAN_POINT ( 'NONE',  ( 5.599999999999999600, -5.849999999999999600, 16.30000000000000100 ) ) ;
#76 = CARTESIAN_POINT ( 'NONE',  ( 5.599999999999999600, 4.649999999999999500, 16.30000000000000100 ) ) ;
#77 = EDGE_CURVE ( 'NONE', #43, #126, #177, .T. ) ;
#78 = DIRECTION ( 'NONE',  ( 1.000000000000000000, 1.548860246407863800E-016, 0.0000000000000000000 ) ) ;
#79 = DIRECTION ( 'NONE',  ( 1.548860246407863800E-016, -1.000000000000000000, 0.0000000000000000000 ) ) ;
#80 = AXIS2_PLACEMENT_3D ( 'NONE', #48, #33, #31 ) ;
#81 = CARTESIAN_POINT ( 'NONE',  ( 5.599999999999999600, -5.849999999999999600, 16.30000000000000100 ) ) ;
#82 = DIRECTION ( 'NONE',  ( -1.000000000000000000, -1.548860246407863800E-016, -1.926070806006015600E-034 ) ) ;
#83 = CARTESIAN_POINT ( 'NONE',  ( 5.599999999999999600, -5.849999999999999600, -15.09995611547715400 ) ) ;
#84 = PLANE ( 'NONE',  #125 ) ;
#85 = ORIENTED_EDGE ( 'NONE', *, *, #164, .F. ) ;
#86 = ORIENTED_EDGE ( 'NONE', *, *, #118, .T. ) ;
#87 = EDGE_CURVE ( 'NONE', #38, #183, #189, .T. ) ;
#88 = PLANE ( 'NONE',  #141 ) ;
#89 = DIRECTION ( 'NONE',  ( 0.0000000000000000000, 0.0000000000000000000, 1.000000000000000000 ) ) ;
#90 = ORIENTED_EDGE ( 'NONE', *, *, #298, .T. ) ;
#91 = EDGE_CURVE ( 'NONE', #294, #190, #315, .T. ) ;
#92 = VECTOR ( 'NONE', #49, 1000.000000000000000 ) ;
#93 = DIRECTION ( 'NONE',  ( -1.000000000000000000, 0.0000000000000000000, 0.0000000000000000000 ) ) ;
#94 = CARTESIAN_POINT ( 'NONE',  ( 5.599999999999999600, 5.849999999999999600, 16.30000000000000100 ) ) ;
#95 = ORIENTED_EDGE ( 'NONE', *, *, #279, .F. ) ;
#96 = CARTESIAN_POINT ( 'NONE',  ( -4.310156736183136800, 4.649999999999997700, 16.30000000000000100 ) ) ;
#97 = DIRECTION ( 'NONE',  ( 0.0000000000000000000, -0.9999634309016398600, 0.008552009086826840200 ) ) ;
#98 = DIRECTION ( 'NONE',  ( -1.324586690150490900E-018, 0.008552009086826841900, 0.9999634309016399700 ) ) ;
#99 = PLANE ( 'NONE',  #171 ) ;
#100 = CARTESIAN_POINT ( 'NONE',  ( 5.599999999999999600, -5.849999999999999600, 16.30000000000000100 ) ) ;
#101 = CARTESIAN_POINT ( 'NONE',  ( 5.599999999999999600, -5.849999999999999600, 16.30000000000000100 ) ) ;
#102 = DIRECTION ( 'NONE',  ( 0.0000000000000000000, 0.9999634309016398600, 0.008552009086826840200 ) ) ;
#103 = DIRECTION ( 'NONE',  ( -1.324586690150490900E-018, 0.008552009086826841900, -0.9999634309016399700 ) ) ;
#104 = AXIS2_PLACEMENT_3D ( 'NONE', #70, #47, #44 ) ;
#105 = PRESENTATION_LAYER_ASSIGNMENT (  '', '', ( #115 ) ) ;
#106 = PLANE ( 'NONE',  #316 ) ;
#107 = EDGE_CURVE ( 'NONE', #126, #183, #319, .T. ) ;
#108 = PLANE ( 'NONE',  #174 ) ;
#109 = EDGE_LOOP ( 'NONE', ( #121, #112, #111, #110 ) ) ;
#110 = ORIENTED_EDGE ( 'NONE', *, *, #334, .T. ) ;
#111 = ORIENTED_EDGE ( 'NONE', *, *, #279, .T. ) ;
#112 = ORIENTED_EDGE ( 'NONE', *, *, #194, .F. ) ;
#113 = DIRECTION ( 'NONE',  ( 0.0000000000000000000, 0.9999634309016398600, 0.008552009086826840200 ) ) ;
#114 = EDGE_CURVE ( 'NONE', #54, #38, #234, .T. ) ;
#115 = STYLED_ITEM ( 'NONE', ( #52 ), #205 ) ;
#116 = DIRECTION ( 'NONE',  ( -0.0000000000000000000, -0.0000000000000000000, -1.000000000000000000 ) ) ;
#117 = CARTESIAN_POINT ( 'NONE',  ( -4.310156736183135900, 4.649999999999997700, 15.01015673618313800 ) ) ;
#118 = EDGE_CURVE ( 'NONE', #190, #310, #64, .T. ) ;
#119 = SHAPE_DEFINITION_REPRESENTATION ( #157, #291 ) ;
#120 = CARTESIAN_POINT ( 'NONE',  ( 5.599999999999999600, -5.849999999999999600, -16.30000000000000100 ) ) ;
#121 = ORIENTED_EDGE ( 'NONE', *, *, #138, .F. ) ;
#122 = VERTEX_POINT ( 'NONE', #9 ) ;
#123 = CARTESIAN_POINT ( 'NONE',  ( -5.499937834500955500, 5.849999999999997900, -16.19993783450095400 ) ) ;
#124 = VECTOR ( 'NONE', #280, 1000.000000000000000 ) ;
#125 = AXIS2_PLACEMENT_3D ( 'NONE', #94, #79, #78 ) ;
#126 = VERTEX_POINT ( 'NONE', #1 ) ;
#127 = ORIENTED_EDGE ( 'NONE', *, *, #227, .T. ) ;
#128 = ORIENTED_EDGE ( 'NONE', *, *, #142, .T. ) ;
#129 = EDGE_LOOP ( 'NONE', ( #29, #185, #287, #159 ) ) ;
#130 = ORIENTED_EDGE ( 'NONE', *, *, #118, .F. ) ;
#131 = ORIENTED_EDGE ( 'NONE', *, *, #334, .F. ) ;
#132 = DIRECTION ( 'NONE',  ( -0.0000000000000000000, 0.9999634309016398600, -0.008552009086826840200 ) ) ;
#133 = CARTESIAN_POINT ( 'NONE',  ( 5.599999999999999600, -5.849999999999999600, 15.09995611547715400 ) ) ;
#134 = EDGE_LOOP ( 'NONE', ( #206, #201, #323, #46 ) ) ;
#135 = CARTESIAN_POINT ( 'NONE',  ( 5.599999999999999600, 5.849999999999999600, 16.30000000000000100 ) ) ;
#136 = MECHANICAL_DESIGN_GEOMETRIC_PRESENTATION_REPRESENTATION (  '', ( #115 ), #314 ) ;
#137 = CARTESIAN_POINT ( 'NONE',  ( 5.599999999999999600, -5.860262410904191200, 15.10004388291803500 ) ) ;
#138 = EDGE_CURVE ( 'NONE', #195, #224, #236, .T. ) ;
#139 = ORIENTED_EDGE ( 'NONE', *, *, #298, .F. ) ;
#140 = CARTESIAN_POINT ( 'NONE',  ( 5.599999999999999600, -5.849999999999999600, -16.30000000000000100 ) ) ;
#141 = AXIS2_PLACEMENT_3D ( 'NONE', #81, #72, #286 ) ;
#142 = EDGE_CURVE ( 'NONE', #199, #224, #237, .T. ) ;
#143 = DIRECTION ( 'NONE',  ( -1.000000000000000000, -1.548860246407863600E-016, 0.0000000000000000000 ) ) ;
#144 = ORIENTED_EDGE ( 'NONE', *, *, #268, .T. ) ;
#145 =( NAMED_UNIT ( * ) SI_UNIT ( $, .STERADIAN. ) SOLID_ANGLE_UNIT ( ) );
#146 = VECTOR ( 'NONE', #113, 1000.000000000000100 ) ;
#147 =( NAMED_UNIT ( * ) PLANE_ANGLE_UNIT ( ) SI_UNIT ( $, .RADIAN. ) );
#148 =( LENGTH_UNIT ( ) NAMED_UNIT ( * ) SI_UNIT ( .MILLI., .METRE. ) );
#149 = SURFACE_STYLE_USAGE ( .BOTH. , #150 ) ;
#150 = SURFACE_SIDE_STYLE ('',( #160 ) ) ;
#151 = FILL_AREA_STYLE ('',( #163 ) ) ;
#152 = EDGE_CURVE ( 'NONE', #223, #54, #233, .T. ) ;
#153 = SURFACE_SIDE_STYLE ('',( #187 ) ) ;
#154 = ORIENTED_EDGE ( 'NONE', *, *, #91, .T. ) ;
#155 = CARTESIAN_POINT ( 'NONE',  ( -5.599999999999999600, -5.850000000000001400, 16.30000000000000100 ) ) ;
#156 = CARTESIAN_POINT ( 'NONE',  ( 5.599999999999999600, 5.849999999999999600, -16.19993783450095700 ) ) ;
#157 = PRODUCT_DEFINITION_SHAPE ( 'NONE', 'NONE',  #21 ) ;
#158 = UNCERTAINTY_MEASURE_WITH_UNIT (LENGTH_MEASURE( 1.000000000000000100E-005 ), #242, 'distance_accuracy_value', 'NONE');
#159 = ORIENTED_EDGE ( 'NONE', *, *, #87, .F. ) ;
#160 = SURFACE_STYLE_FILL_AREA ( #151 ) ;
#161 = DIRECTION ( 'NONE',  ( -0.0000000000000000000, -0.0000000000000000000, -1.000000000000000000 ) ) ;
#162 = CARTESIAN_POINT ( 'NONE',  ( -5.599999999999999600, -5.850000000000001400, -16.30000000000000100 ) ) ;
#163 = FILL_AREA_STYLE_COLOUR ( '', #318 ) ;
#164 = EDGE_CURVE ( 'NONE', #257, #183, #229, .T. ) ;
#165 =( NAMED_UNIT ( * ) PLANE_ANGLE_UNIT ( ) SI_UNIT ( $, .RADIAN. ) );
#166 = CARTESIAN_POINT ( 'NONE',  ( 5.599999999999999600, 5.849999999999999600, 16.19993783450095400 ) ) ;
#167 = LINE ( 'NONE', #50, #92 ) ;
#168 = EDGE_CURVE ( 'NONE', #122, #126, #244, .T. ) ;
#169 = CARTESIAN_POINT ( 'NONE',  ( -4.399956115477150000, -5.850000000000001400, -15.09995611547715400 ) ) ;
#170 = EDGE_CURVE ( 'NONE', #294, #223, #250, .T. ) ;
#171 = AXIS2_PLACEMENT_3D ( 'NONE', #101, #93, #89 ) ;
#172 = ORIENTED_EDGE ( 'NONE', *, *, #152, .T. ) ;
#173 = ORIENTED_EDGE ( 'NONE', *, *, #313, .F. ) ;
#174 = AXIS2_PLACEMENT_3D ( 'NONE', #100, #98, #97 ) ;
#175 = EDGE_CURVE ( 'NONE', #43, #257, #238, .T. ) ;
#176 = ORIENTED_EDGE ( 'NONE', *, *, #107, .F. ) ;
#177 = LINE ( 'NONE', #76, #207 ) ;
#178 = ORIENTED_EDGE ( 'NONE', *, *, #152, .F. ) ;
#179 = CARTESIAN_POINT ( 'NONE',  ( 5.599999999999999600, -5.849999999999999600, -16.30000000000000100 ) ) ;
#180 = ORIENTED_EDGE ( 'NONE', *, *, #194, .T. ) ;
#181 = ORIENTED_EDGE ( 'NONE', *, *, #114, .F. ) ;
#182 = CARTESIAN_POINT ( 'NONE',  ( 5.599999999999999600, -5.849999999999999600, -16.30000000000000100 ) ) ;
#183 = VERTEX_POINT ( 'NONE', #225 ) ;
#184 = ORIENTED_EDGE ( 'NONE', *, *, #164, .T. ) ;
#185 = ORIENTED_EDGE ( 'NONE', *, *, #168, .T. ) ;
#186 = CARTESIAN_POINT ( 'NONE',  ( -5.599999999999999600, -5.850000000000001400, 16.30000000000000100 ) ) ;
#187 = SURFACE_STYLE_FILL_AREA ( #278 ) ;
#188 = DIRECTION ( 'NONE',  ( -0.0000000000000000000, -0.0000000000000000000, -1.000000000000000000 ) ) ;
#189 = LINE ( 'NONE', #18, #32 ) ;
#190 = VERTEX_POINT ( 'NONE', #166 ) ;
#191 = VERTEX_POINT ( 'NONE', #182 ) ;
#192 = ORIENTED_EDGE ( 'NONE', *, *, #77, .F. ) ;
#193 = DIRECTION ( 'NONE',  ( 1.000000000000000000, 0.0000000000000000000, 0.0000000000000000000 ) ) ;
#194 = EDGE_CURVE ( 'NONE', #212, #195, #312, .T. ) ;
#195 = VERTEX_POINT ( 'NONE', #162 ) ;
#196 = EDGE_LOOP ( 'NONE', ( #258, #154, #86, #95 ) ) ;
#197 = APPLICATION_CONTEXT ( 'automotive_design' ) ;
#198 = DIRECTION ( 'NONE',  ( 0.0000000000000000000, 0.0000000000000000000, -1.000000000000000000 ) ) ;
#199 = VERTEX_POINT ( 'NONE', #156 ) ;
#200 = EDGE_LOOP ( 'NONE', ( #176, #192, #324, #184 ) ) ;
#201 = ORIENTED_EDGE ( 'NONE', *, *, #138, .T. ) ;
#202 = EDGE_LOOP ( 'NONE', ( #283, #41, #306, #203, #259, #216, #226, #208 ) ) ;
#203 = ORIENTED_EDGE ( 'NONE', *, *, #227, .F. ) ;
#204 = FACE_OUTER_BOUND ( 'NONE', #261, .T. ) ;
#205 = MANIFOLD_SOLID_BREP ( 'Wandung2', #290 ) ;
#206 = ORIENTED_EDGE ( 'NONE', *, *, #209, .T. ) ;
#207 = VECTOR ( 'NONE', #282, 1000.000000000000000 ) ;
#208 = ORIENTED_EDGE ( 'NONE', *, *, #77, .T. ) ;
#209 = EDGE_CURVE ( 'NONE', #191, #195, #328, .T. ) ;
#210 = CARTESIAN_POINT ( 'NONE',  ( -5.599180927078904800, -5.754228005370176600, -16.29918092707890800 ) ) ;
#211 = EDGE_LOOP ( 'NONE', ( #173, #144, #181, #178, #67, #243, #180, #252 ) ) ;
#212 = VERTEX_POINT ( 'NONE', #155 ) ;
#213 = EDGE_LOOP ( 'NONE', ( #172, #90, #45, #28 ) ) ;
#214 = EDGE_CURVE ( 'NONE', #223, #43, #218, .T. ) ;
#215 = AXIS2_PLACEMENT_3D ( 'NONE', #68, #57, #55 ) ;
#216 = ORIENTED_EDGE ( 'NONE', *, *, #170, .T. ) ;
#217 = EDGE_LOOP ( 'NONE', ( #307, #85, #139, #326 ) ) ;
#218 = LINE ( 'NONE', #137, #239 ) ;
#219 = CARTESIAN_POINT ( 'NONE',  ( -4.399956115477150000, -5.850000000000001400, 15.09995611547715400 ) ) ;
#220 = VECTOR ( 'NONE', #82, 1000.000000000000000 ) ;
#221 = DIRECTION ( 'NONE',  ( 0.008551696370436727400, 0.9999268658148834400, 0.008551696370436883500 ) ) ;
#222 = CARTESIAN_POINT ( 'NONE',  ( 5.599999999999999600, -5.849999999999999600, 16.30000000000000100 ) ) ;
#223 = VERTEX_POINT ( 'NONE', #133 ) ;
#224 = VERTEX_POINT ( 'NONE', #123 ) ;
#225 = CARTESIAN_POINT ( 'NONE',  ( -4.310156736183135900, 4.649999999999997700, -15.01015673618313800 ) ) ;
#226 = ORIENTED_EDGE ( 'NONE', *, *, #214, .T. ) ;
#227 = EDGE_CURVE ( 'NONE', #190, #199, #288, .T. ) ;
#228 = CARTESIAN_POINT ( 'NONE',  ( 5.599999999999999600, -5.849999999999999600, 16.30000000000000100 ) ) ;
#229 = LINE ( 'NONE', #96, #245 ) ;
#230 = FACE_OUTER_BOUND ( 'NONE', #196, .T. ) ;
#231 = VECTOR ( 'NONE', #73, 1000.000000000000000 ) ;
#232 = VECTOR ( 'NONE', #300, 1000.000000000000000 ) ;
#233 = LINE ( 'NONE', #289, #232 ) ;
#234 = LINE ( 'NONE', #17, #240 ) ;
#235 = VECTOR ( 'NONE', #322, 1000.000000000000000 ) ;
#236 = LINE ( 'NONE', #210, #241 ) ;
#237 = LINE ( 'NONE', #317, #231 ) ;
#238 = LINE ( 'NONE', #273, #124 ) ;
#239 = VECTOR ( 'NONE', #132, 1000.000000000000100 ) ;
#240 = VECTOR ( 'NONE', #198, 1000.000000000000000 ) ;
#241 = VECTOR ( 'NONE', #327, 1000.000000000000000 ) ;
#242 =( LENGTH_UNIT ( ) NAMED_UNIT ( * ) SI_UNIT ( .MILLI., .METRE. ) );
#243 = ORIENTED_EDGE ( 'NONE', *, *, #330, .T. ) ;
#244 = LINE ( 'NONE', #276, #274 ) ;
#245 = VECTOR ( 'NONE', #284, 1000.000000000000000 ) ;
#246 = FACE_OUTER_BOUND ( 'NONE', #109, .T. ) ;
#247 = APPLICATION_CONTEXT ( 'automotive_design' ) ;
#248 = UNCERTAINTY_MEASURE_WITH_UNIT (LENGTH_MEASURE( 1.000000000000000100E-005 ), #5, 'distance_accuracy_value', 'NONE');
#249 = LINE ( 'NONE', #22, #304 ) ;
#250 = LINE ( 'NONE', #228, #270 ) ;
#251 = EDGE_CURVE ( 'NONE', #191, #199, #329, .T. ) ;
#252 = ORIENTED_EDGE ( 'NONE', *, *, #209, .F. ) ;
#253 = SURFACE_STYLE_USAGE ( .BOTH. , #153 ) ;
#254 = UNCERTAINTY_MEASURE_WITH_UNIT (LENGTH_MEASURE( 1.000000000000000100E-005 ), #148, 'distance_accuracy_value', 'NONE');
#255 = DIRECTION ( 'NONE',  ( 0.0000000000000000000, 0.9999634309016398600, 0.008552009086826840200 ) ) ;
#256 = ADVANCED_FACE ( 'NONE', ( #39 ), #106, .T. ) ;
#257 = VERTEX_POINT ( 'NONE', #117 ) ;
#258 = ORIENTED_EDGE ( 'NONE', *, *, #330, .F. ) ;
#259 = ORIENTED_EDGE ( 'NONE', *, *, #91, .F. ) ;
#260 = ADVANCED_FACE ( 'NONE', ( #230 ), #108, .T. ) ;
#261 = EDGE_LOOP ( 'NONE', ( #128, #131, #130, #127 ) ) ;
#262 = ADVANCED_FACE ( 'NONE', ( #275 ), #99, .F. ) ;
#263 = VECTOR ( 'NONE', #74, 1000.000000000000000 ) ;
#264 = PRODUCT ( '6153607', '6153607', '', ( #292 ) ) ;
#265 = FACE_OUTER_BOUND ( 'NONE', #217, .T. ) ;
#266 = COLOUR_RGB ( '',0.7921568627450980000, 0.8196078431372548800, 0.9333333333333333500 ) ;
#267 = CARTESIAN_POINT ( 'NONE',  ( 5.599999999999997900, 4.650000000000000400, -15.01015673618313800 ) ) ;
#268 = EDGE_CURVE ( 'NONE', #122, #38, #12, .T. ) ;
#269 = ADVANCED_FACE ( 'NONE', ( #204 ), #84, .F. ) ;
#270 = VECTOR ( 'NONE', #188, 1000.000000000000000 ) ;
#271 = DIRECTION ( 'NONE',  ( -0.0000000000000000000, 0.9999634309016398600, -0.008552009086826840200 ) ) ;
#272 = ADVANCED_FACE ( 'NONE', ( #277 ), #88, .T. ) ;
#273 = CARTESIAN_POINT ( 'NONE',  ( 5.599999999999997900, 4.650000000000000400, 15.01015673618313800 ) ) ;
#274 = VECTOR ( 'NONE', #255, 1000.000000000000100 ) ;
#275 = FACE_OUTER_BOUND ( 'NONE', #202, .T. ) ;
#276 = CARTESIAN_POINT ( 'NONE',  ( 5.599999999999999600, -5.860262410904191200, -15.10004388291803500 ) ) ;
#277 = FACE_OUTER_BOUND ( 'NONE', #211, .T. ) ;
#278 = FILL_AREA_STYLE ('',( #30 ) ) ;
#279 = EDGE_CURVE ( 'NONE', #212, #310, #320, .T. ) ;
#280 = DIRECTION ( 'NONE',  ( -1.000000000000000000, -1.548860246407863800E-016, 1.926070806006015600E-034 ) ) ;
#281 = PRODUCT_DEFINITION_CONTEXT ( 'detailed design', #197, 'design' ) ;
#282 = DIRECTION ( 'NONE',  ( 0.0000000000000000000, 0.0000000000000000000, -1.000000000000000000 ) ) ;
#283 = ORIENTED_EDGE ( 'NONE', *, *, #168, .F. ) ;
#284 = DIRECTION ( 'NONE',  ( 0.0000000000000000000, 0.0000000000000000000, -1.000000000000000000 ) ) ;
#285 = PRESENTATION_STYLE_ASSIGNMENT (( #253 ) ) ;
#286 = DIRECTION ( 'NONE',  ( 1.000000000000000000, 1.548860246407863800E-016, 0.0000000000000000000 ) ) ;
#287 = ORIENTED_EDGE ( 'NONE', *, *, #107, .T. ) ;
#288 = LINE ( 'NONE', #135, #60 ) ;
#289 = CARTESIAN_POINT ( 'NONE',  ( 5.599999999999999600, -5.849999999999999600, 15.09995611547715400 ) ) ;
#290 = CLOSED_SHELL ( 'NONE', ( #272, #262, #269, #302, #260, #256, #305, #299, #303, #295 ) ) ;
#291 = ADVANCED_BREP_SHAPE_REPRESENTATION ( '6153607', ( #205, #24 ), #58 ) ;
#292 = PRODUCT_CONTEXT ( 'NONE', #247, 'mechanical' ) ;
#293 = FACE_OUTER_BOUND ( 'NONE', #213, .T. ) ;
#294 = VERTEX_POINT ( 'NONE', #75 ) ;
#295 = ADVANCED_FACE ( 'NONE', ( #311 ), #71, .F. ) ;
#296 = PLANE ( 'NONE',  #104 ) ;
#297 =( NAMED_UNIT ( * ) SI_UNIT ( $, .STERADIAN. ) SOLID_ANGLE_UNIT ( ) );
#298 = EDGE_CURVE ( 'NONE', #54, #257, #167, .T. ) ;
#299 = ADVANCED_FACE ( 'NONE', ( #265 ), #296, .F. ) ;
#300 = DIRECTION ( 'NONE',  ( -1.000000000000000000, -1.548860246407863800E-016, 1.926070806006015600E-034 ) ) ;
#301 = LINE ( 'NONE', #8, #333 ) ;
#302 = ADVANCED_FACE ( 'NONE', ( #246 ), #53, .T. ) ;
#303 = ADVANCED_FACE ( 'NONE', ( #293 ), #42, .F. ) ;
#304 = VECTOR ( 'NONE', #11, 1000.000000000000000 ) ;
#305 = ADVANCED_FACE ( 'NONE', ( #321 ), #27, .T. ) ;
#306 = ORIENTED_EDGE ( 'NONE', *, *, #251, .T. ) ;
#307 = ORIENTED_EDGE ( 'NONE', *, *, #87, .T. ) ;
#308 = LINE ( 'NONE', #14, #309 ) ;
#309 = VECTOR ( 'NONE', #10, 1000.000000000000000 ) ;
#310 = VERTEX_POINT ( 'NONE', #13 ) ;
#311 = FACE_OUTER_BOUND ( 'NONE', #129, .T. ) ;
#312 = LINE ( 'NONE', #186, #61 ) ;
#313 = EDGE_CURVE ( 'NONE', #122, #191, #308, .T. ) ;
#314 =( GEOMETRIC_REPRESENTATION_CONTEXT ( 3 ) GLOBAL_UNCERTAINTY_ASSIGNED_CONTEXT ( ( #254 ) ) GLOBAL_UNIT_ASSIGNED_CONTEXT ( ( #148, #147, #145 ) ) REPRESENTATION_CONTEXT ( 'NONE', 'WORKASPACE' ) );
#315 = LINE ( 'NONE', #222, #59 ) ;
#316 = AXIS2_PLACEMENT_3D ( 'NONE', #140, #103, #102 ) ;
#317 = CARTESIAN_POINT ( 'NONE',  ( 5.599999999999997900, 5.849999999999999600, -16.19993783450095400 ) ) ;
#318 = COLOUR_RGB ( '',0.7921568627450980000, 0.8196078431372548800, 0.9333333333333333500 ) ;
#319 = LINE ( 'NONE', #267, #263 ) ;
#320 = LINE ( 'NONE', #66, #325 ) ;
#321 = FACE_OUTER_BOUND ( 'NONE', #200, .T. ) ;
#322 = DIRECTION ( 'NONE',  ( -1.000000000000000000, -1.548860246407863800E-016, 1.926070806006015600E-034 ) ) ;
#323 = ORIENTED_EDGE ( 'NONE', *, *, #142, .F. ) ;
#324 = ORIENTED_EDGE ( 'NONE', *, *, #175, .T. ) ;
#325 = VECTOR ( 'NONE', #62, 1000.000000000000000 ) ;
#326 = ORIENTED_EDGE ( 'NONE', *, *, #114, .T. ) ;
#327 = DIRECTION ( 'NONE',  ( 0.008551696370436727400, 0.9999268658148834400, 0.008551696370436883500 ) ) ;
#328 = LINE ( 'NONE', #179, #331 ) ;
#329 = LINE ( 'NONE', #120, #146 ) ;
#330 = EDGE_CURVE ( 'NONE', #294, #212, #249, .T. ) ;
#331 = VECTOR ( 'NONE', #143, 1000.000000000000000 ) ;
#332 = DIRECTION ( 'NONE',  ( 0.0000000000000000000, 0.0000000000000000000, 1.000000000000000000 ) ) ;
#333 = VECTOR ( 'NONE', #7, 1000.000000000000000 ) ;
#334 = EDGE_CURVE ( 'NONE', #310, #224, #301, .T. ) ;
ENDSEC;
END-ISO-10303-21;
