ISO-10303-21;
HEADER;
FILE_DESCRIPTION (( 'STEP AP214' ),
    '1' );
FILE_NAME ('6154034.STEP',
    '2016-06-28T13:37:27',
    ( '' ),
    ( '' ),
    'SwSTEP 2.0',
    'SolidWorks 2014',
    '' );
FILE_SCHEMA (( 'AUTOMOTIVE_DESIGN' ));
ENDSEC;

DATA;
#1 = PLANE ( 'NONE',  #294 ) ;
#2 = EDGE_CURVE ( 'NONE', #250, #192, #97, .T. ) ;
#3 = EDGE_LOOP ( 'NONE', ( #310, #103, #40, #186, #122, #227, #83, #188 ) ) ;
#4 = LINE ( 'NONE', #271, #219 ) ;
#5 = CARTESIAN_POINT ( 'NONE',  ( -15.00004568536423300, 5.839528954797400800, -7.000091379427114900 ) ) ;
#6 = PRODUCT_DEFINITION_SHAPE ( 'NONE', 'NONE',  #105 ) ;
#7 = LINE ( 'NONE', #181, #155 ) ;
#8 = SURFACE_STYLE_FILL_AREA ( #194 ) ;
#9 = VERTEX_POINT ( 'NONE', #252 ) ;
#10 = PLANE ( 'NONE',  #276 ) ;
#11 = EDGE_CURVE ( 'NONE', #313, #321, #7, .T. ) ;
#12 = ORIENTED_EDGE ( 'NONE', *, *, #318, .F. ) ;
#13 = CARTESIAN_POINT ( 'NONE',  ( 16.19753284941302200, 6.132707455426598600, 6.997532849413030200 ) ) ;
#14 = EDGE_CURVE ( 'NONE', #240, #253, #248, .T. ) ;
#15 = DIRECTION ( 'NONE',  ( -1.000000000000000000, -0.0000000000000000000, -0.0000000000000000000 ) ) ;
#16 = VECTOR ( 'NONE', #216, 1000.000000000000000 ) ;
#17 = DIRECTION ( 'NONE',  ( -0.9999619230641713100, 0.008726535498373953800, 0.0000000000000000000 ) ) ;
#18 = ORIENTED_EDGE ( 'NONE', *, *, #295, .F. ) ;
#19 = DIRECTION ( 'NONE',  ( -1.000000000000000000, 0.0000000000000000000, 0.0000000000000000000 ) ) ;
#20 = LINE ( 'NONE', #137, #185 ) ;
#21 = DIRECTION ( 'NONE',  ( 0.0000000000000000000, 1.000000000000000000, 0.0000000000000000000 ) ) ;
#22 = CARTESIAN_POINT ( 'NONE',  ( -16.20000000000000300, 5.849999999999998800, 7.000000000000000000 ) ) ;
#23 = ORIENTED_EDGE ( 'NONE', *, *, #43, .F. ) ;
#24 = FACE_OUTER_BOUND ( 'NONE', #138, .T. ) ;
#25 = DIRECTION ( 'NONE',  ( -0.0000000000000000000, -0.0000000000000000000, -1.000000000000000000 ) ) ;
#26 =( GEOMETRIC_REPRESENTATION_CONTEXT ( 3 ) GLOBAL_UNCERTAINTY_ASSIGNED_CONTEXT ( ( #148 ) ) GLOBAL_UNIT_ASSIGNED_CONTEXT ( ( #74, #33, #239 ) ) REPRESENTATION_CONTEXT ( 'NONE', 'WORKASPACE' ) );
#27 = VECTOR ( 'NONE', #163, 1000.000000000000000 ) ;
#28 = ORIENTED_EDGE ( 'NONE', *, *, #62, .F. ) ;
#29 = CARTESIAN_POINT ( 'NONE',  ( -16.20000000000000300, -5.850000000000000500, 7.102104353151878200 ) ) ;
#30 = VECTOR ( 'NONE', #79, 1000.000000000000000 ) ;
#31 = ORIENTED_EDGE ( 'NONE', *, *, #119, .T. ) ;
#32 = CARTESIAN_POINT ( 'NONE',  ( 15.01042654728602200, 4.649999999999998600, -7.010472241348910700 ) ) ;
#33 =( NAMED_UNIT ( * ) PLANE_ANGLE_UNIT ( ) SI_UNIT ( $, .RADIAN. ) );
#34 = PRODUCT_RELATED_PRODUCT_CATEGORY ( 'part', '', ( #46 ) ) ;
#35 = ORIENTED_EDGE ( 'NONE', *, *, #119, .F. ) ;
#36 = VECTOR ( 'NONE', #129, 1000.000000000000000 ) ;
#37 = VERTEX_POINT ( 'NONE', #211 ) ;
#38 = DIRECTION ( 'NONE',  ( 0.0000000000000000000, -1.000000000000000000, 0.0000000000000000000 ) ) ;
#39 = UNCERTAINTY_MEASURE_WITH_UNIT (LENGTH_MEASURE( 1.000000000000000100E-005 ), #235, 'distance_accuracy_value', 'NONE');
#40 = ORIENTED_EDGE ( 'NONE', *, *, #283, .T. ) ;
#41 = MECHANICAL_DESIGN_GEOMETRIC_PRESENTATION_REPRESENTATION (  '', ( #81 ), #26 ) ;
#42 = SURFACE_SIDE_STYLE ('',( #259 ) ) ;
#43 = EDGE_CURVE ( 'NONE', #196, #134, #165, .T. ) ;
#44 = DIRECTION ( 'NONE',  ( -1.000000000000000000, -0.0000000000000000000, 0.0000000000000000000 ) ) ;
#45 = CARTESIAN_POINT ( 'NONE',  ( -16.20000000000000300, 4.649999999999998600, 7.000000000000000000 ) ) ;
#46 = PRODUCT ( '6154034', '6154034', '', ( #220 ) ) ;
#47 = DIRECTION ( 'NONE',  ( 0.0000000000000000000, -1.000000000000000000, 0.0000000000000000000 ) ) ;
#48 = EDGE_CURVE ( 'NONE', #321, #110, #166, .T. ) ;
#49 = CARTESIAN_POINT ( 'NONE',  ( -16.20000000000000300, 4.649999999999998600, -7.010472241348910700 ) ) ;
#50 = CARTESIAN_POINT ( 'NONE',  ( 14.99757853477725400, 6.122236410224001400, 6.997624228840145100 ) ) ;
#51 = PLANE ( 'NONE',  #264 ) ;
#52 = PRODUCT_DEFINITION_FORMATION_WITH_SPECIFIED_SOURCE ( 'ANY', '', #46, .NOT_KNOWN. ) ;
#53 = VECTOR ( 'NONE', #244, 1000.000000000000000 ) ;
#54 = DIRECTION ( 'NONE',  ( 0.9999619230641713100, 0.008726535498373953800, 0.0000000000000000000 ) ) ;
#55 = VECTOR ( 'NONE', #127, 1000.000000000000000 ) ;
#56 = DIRECTION ( 'NONE',  ( 1.000000000000000000, -0.0000000000000000000, -0.0000000000000000000 ) ) ;
#57 = CARTESIAN_POINT ( 'NONE',  ( -16.30210435315187900, -5.850000000000000500, 7.000000000000000000 ) ) ;
#58 = DIRECTION ( 'NONE',  ( 0.0000000000000000000, 0.008726535498373953800, 0.9999619230641713100 ) ) ;
#59 = DIRECTION ( 'NONE',  ( 0.0000000000000000000, 0.008726535498373953800, -0.9999619230641713100 ) ) ;
#60 = PLANE ( 'NONE',  #118 ) ;
#61 = PRESENTATION_STYLE_ASSIGNMENT (( #136 ) ) ;
#62 = EDGE_CURVE ( 'NONE', #134, #321, #280, .T. ) ;
#63 = PRESENTATION_LAYER_ASSIGNMENT (  '', '', ( #81 ) ) ;
#64 = VECTOR ( 'NONE', #19, 1000.000000000000000 ) ;
#65 = PLANE ( 'NONE',  #282 ) ;
#66 = CARTESIAN_POINT ( 'NONE',  ( -16.30210435315187900, -5.850000000000000500, 7.102104353151878200 ) ) ;
#67 = LINE ( 'NONE', #5, #89 ) ;
#68 = CARTESIAN_POINT ( 'NONE',  ( 15.00004569232299000, 5.839528157401949700, 7.000000000000000000 ) ) ;
#69 = DIRECTION ( 'NONE',  ( -0.008726203243944236400, 0.9999238504775704900, 0.008726203243944236400 ) ) ;
#70 = ORIENTED_EDGE ( 'NONE', *, *, #48, .T. ) ;
#71 = LINE ( 'NONE', #246, #16 ) ;
#72 = CARTESIAN_POINT ( 'NONE',  ( -16.20000000000000300, -5.850000000000000500, 7.000000000000000000 ) ) ;
#73 = DIRECTION ( 'NONE',  ( 0.0000000000000000000, -0.0000000000000000000, -1.000000000000000000 ) ) ;
#74 =( LENGTH_UNIT ( ) NAMED_UNIT ( * ) SI_UNIT ( .MILLI., .METRE. ) );
#75 = ORIENTED_EDGE ( 'NONE', *, *, #90, .T. ) ;
#76 = FACE_OUTER_BOUND ( 'NONE', #212, .T. ) ;
#77 = VECTOR ( 'NONE', #333, 1000.000000000000000 ) ;
#78 = EDGE_LOOP ( 'NONE', ( #28, #111, #222, #31, #160, #316, #224, #274 ) ) ;
#79 = DIRECTION ( 'NONE',  ( -0.008726203243944236400, 0.9999238504775704900, -0.008726203243944236400 ) ) ;
#80 = CARTESIAN_POINT ( 'NONE',  ( -16.20000000000000300, -5.850000000000000500, -7.102104353151878200 ) ) ;
#81 = STYLED_ITEM ( 'NONE', ( #92 ), #96 ) ;
#82 = DIRECTION ( 'NONE',  ( 0.0000000000000000000, -0.9999619230641713100, 0.008726535498373953800 ) ) ;
#83 = ORIENTED_EDGE ( 'NONE', *, *, #320, .F. ) ;
#84 = DIRECTION ( 'NONE',  ( 0.0000000000000000000, 0.0000000000000000000, 1.000000000000000000 ) ) ;
#85 = CARTESIAN_POINT ( 'NONE',  ( -15.01042654728602900, 4.649999999999998600, 7.000000000000000000 ) ) ;
#86 = FILL_AREA_STYLE_COLOUR ( '', #322 ) ;
#87 = ADVANCED_FACE ( 'NONE', ( #24 ), #10, .T. ) ;
#88 = PLANE ( 'NONE',  #187 ) ;
#89 = VECTOR ( 'NONE', #255, 1000.000000000000000 ) ;
#90 = EDGE_CURVE ( 'NONE', #253, #9, #203, .T. ) ;
#91 = ADVANCED_FACE ( 'NONE', ( #168 ), #126, .F. ) ;
#92 = PRESENTATION_STYLE_ASSIGNMENT (( #93 ) ) ;
#93 = SURFACE_STYLE_USAGE ( .BOTH. , #42 ) ;
#94 = CARTESIAN_POINT ( 'NONE',  ( 16.30210435315187600, -5.850000000000000500, 7.102104353151878200 ) ) ;
#95 = MANIFOLD_SOLID_BREP ( 'Shell3', #199 ) ;
#96 = ADVANCED_BREP_SHAPE_REPRESENTATION ( '6154034', ( #95, #145 ), #275 ) ;
#97 = LINE ( 'NONE', #49, #64 ) ;
#98 = CARTESIAN_POINT ( 'NONE',  ( -16.20000000000000300, 5.849999999999998800, 7.000000000000000000 ) ) ;
#99 = DIRECTION ( 'NONE',  ( -0.008726535498373953800, -0.9999619230641713100, 0.0000000000000000000 ) ) ;
#100 = VECTOR ( 'NONE', #189, 1000.000000000000000 ) ;
#101 = ORIENTED_EDGE ( 'NONE', *, *, #283, .F. ) ;
#102 = CARTESIAN_POINT ( 'NONE',  ( -16.20000000000000300, 5.849999999999998800, -7.000000000000000000 ) ) ;
#103 = ORIENTED_EDGE ( 'NONE', *, *, #295, .T. ) ;
#104 = CARTESIAN_POINT ( 'NONE',  ( 16.19753284941302200, 6.132707455426598600, -6.997532849413030200 ) ) ;
#105 = PRODUCT_DEFINITION ( 'UNKNOWN', '', #52, #191 ) ;
#106 = ORIENTED_EDGE ( 'NONE', *, *, #43, .T. ) ;
#107 = ORIENTED_EDGE ( 'NONE', *, *, #317, .F. ) ;
#108 = DIRECTION ( 'NONE',  ( 0.0000000000000000000, -0.0000000000000000000, -1.000000000000000000 ) ) ;
#109 = DIRECTION ( 'NONE',  ( 1.000000000000000000, 0.0000000000000000000, 0.0000000000000000000 ) ) ;
#110 = VERTEX_POINT ( 'NONE', #179 ) ;
#111 = ORIENTED_EDGE ( 'NONE', *, *, #301, .T. ) ;
#112 = CARTESIAN_POINT ( 'NONE',  ( -16.20000000000000300, 4.649999999999998600, 7.010472241348910700 ) ) ;
#113 = VECTOR ( 'NONE', #221, 1000.000000000000000 ) ;
#114 = ADVANCED_FACE ( 'NONE', ( #291 ), #141, .T. ) ;
#115 = CARTESIAN_POINT ( 'NONE',  ( 16.30210435315187600, -5.850000000000000500, -7.102104353151878200 ) ) ;
#116 = VECTOR ( 'NONE', #124, 1000.000000000000000 ) ;
#117 = ORIENTED_EDGE ( 'NONE', *, *, #11, .F. ) ;
#118 = AXIS2_PLACEMENT_3D ( 'NONE', #305, #59, #210 ) ;
#119 = EDGE_CURVE ( 'NONE', #192, #183, #67, .T. ) ;
#120 = ORIENTED_EDGE ( 'NONE', *, *, #130, .T. ) ;
#121 = ORIENTED_EDGE ( 'NONE', *, *, #11, .T. ) ;
#122 = ORIENTED_EDGE ( 'NONE', *, *, #238, .T. ) ;
#123 = APPLICATION_PROTOCOL_DEFINITION ( 'draft international standard', 'automotive_design', 1998, #182 ) ;
#124 = DIRECTION ( 'NONE',  ( -0.008726203243944236400, 0.9999238504775704900, -0.008726203243944236400 ) ) ;
#125 = FACE_OUTER_BOUND ( 'NONE', #254, .T. ) ;
#126 = PLANE ( 'NONE',  #260 ) ;
#127 = DIRECTION ( 'NONE',  ( 1.000000000000000000, -0.0000000000000000000, -0.0000000000000000000 ) ) ;
#128 = CARTESIAN_POINT ( 'NONE',  ( 15.10205865908898900, -5.850000000000000500, 7.000000000000000000 ) ) ;
#129 = DIRECTION ( 'NONE',  ( -0.0000000000000000000, -0.0000000000000000000, -1.000000000000000000 ) ) ;
#130 = EDGE_CURVE ( 'NONE', #37, #263, #300, .T. ) ;
#131 =( NAMED_UNIT ( * ) SI_UNIT ( $, .STERADIAN. ) SOLID_ANGLE_UNIT ( ) );
#132 = CARTESIAN_POINT ( 'NONE',  ( -15.00004569232299700, 5.839528157401949700, 7.000000000000000000 ) ) ;
#133 = LINE ( 'NONE', #50, #116 ) ;
#134 = VERTEX_POINT ( 'NONE', #299 ) ;
#135 = ORIENTED_EDGE ( 'NONE', *, *, #62, .T. ) ;
#136 = SURFACE_STYLE_USAGE ( .BOTH. , #150 ) ;
#137 = CARTESIAN_POINT ( 'NONE',  ( 15.01042654728602200, 4.649999999999998600, 7.000000000000000000 ) ) ;
#138 = EDGE_LOOP ( 'NONE', ( #70, #315, #101, #121 ) ) ;
#139 = EDGE_LOOP ( 'NONE', ( #237, #209, #120, #140 ) ) ;
#140 = ORIENTED_EDGE ( 'NONE', *, *, #161, .T. ) ;
#141 = PLANE ( 'NONE',  #332 ) ;
#142 = COLOUR_RGB ( '',0.7529411764705882200, 0.7529411764705882200, 0.7529411764705882200 ) ;
#143 = CARTESIAN_POINT ( 'NONE',  ( 16.19999999999999600, 5.849999999999998800, 7.000000000000000000 ) ) ;
#144 = ADVANCED_FACE ( 'NONE', ( #125 ), #251, .F. ) ;
#145 = AXIS2_PLACEMENT_3D ( 'NONE', #215, #84, #109 ) ;
#146 = ORIENTED_EDGE ( 'NONE', *, *, #238, .F. ) ;
#147 = CARTESIAN_POINT ( 'NONE',  ( 14.99757853477725400, 6.122236410224001400, -6.997624228840145100 ) ) ;
#148 = UNCERTAINTY_MEASURE_WITH_UNIT (LENGTH_MEASURE( 1.000000000000000100E-005 ), #74, 'distance_accuracy_value', 'NONE');
#149 = FACE_OUTER_BOUND ( 'NONE', #329, .T. ) ;
#150 = SURFACE_SIDE_STYLE ('',( #8 ) ) ;
#151 = ORIENTED_EDGE ( 'NONE', *, *, #14, .F. ) ;
#152 = CARTESIAN_POINT ( 'NONE',  ( -16.20000000000000300, 5.849999999999998800, 7.000000000000000000 ) ) ;
#153 = EDGE_CURVE ( 'NONE', #110, #253, #156, .T. ) ;
#154 = VECTOR ( 'NONE', #25, 1000.000000000000000 ) ;
#155 = VECTOR ( 'NONE', #265, 1000.000000000000000 ) ;
#156 = LINE ( 'NONE', #175, #279 ) ;
#157 = ORIENTED_EDGE ( 'NONE', *, *, #161, .F. ) ;
#158 = DIRECTION ( 'NONE',  ( 0.0000000000000000000, -0.0000000000000000000, 1.000000000000000000 ) ) ;
#159 = VERTEX_POINT ( 'NONE', #267 ) ;
#160 = ORIENTED_EDGE ( 'NONE', *, *, #298, .F. ) ;
#161 = EDGE_CURVE ( 'NONE', #263, #192, #195, .T. ) ;
#162 = CARTESIAN_POINT ( 'NONE',  ( -16.20000000000000300, 5.849999999999998800, 7.000000000000000000 ) ) ;
#163 = DIRECTION ( 'NONE',  ( 1.000000000000000000, -0.0000000000000000000, 0.0000000000000000000 ) ) ;
#164 = LINE ( 'NONE', #285, #53 ) ;
#165 = LINE ( 'NONE', #128, #113 ) ;
#166 = LINE ( 'NONE', #104, #247 ) ;
#167 = ADVANCED_FACE ( 'NONE', ( #76 ), #51, .T. ) ;
#168 = FACE_OUTER_BOUND ( 'NONE', #214, .T. ) ;
#169 = EDGE_LOOP ( 'NONE', ( #12, #308, #243, #304 ) ) ;
#170 = DIRECTION ( 'NONE',  ( 0.0000000000000000000, -0.0000000000000000000, -1.000000000000000000 ) ) ;
#171 = FACE_OUTER_BOUND ( 'NONE', #78, .T. ) ;
#172 = ORIENTED_EDGE ( 'NONE', *, *, #324, .F. ) ;
#173 = LINE ( 'NONE', #147, #77 ) ;
#174 = ORIENTED_EDGE ( 'NONE', *, *, #266, .T. ) ;
#175 = CARTESIAN_POINT ( 'NONE',  ( -16.20000000000000300, 5.849999999999998800, -7.000000000000000000 ) ) ;
#176 = VECTOR ( 'NONE', #258, 1000.000000000000000 ) ;
#177 = CARTESIAN_POINT ( 'NONE',  ( -16.20000000000000300, 5.849999999999998800, 7.000000000000000000 ) ) ;
#178 = PRESENTATION_LAYER_ASSIGNMENT (  '', '', ( #223 ) ) ;
#179 = CARTESIAN_POINT ( 'NONE',  ( 16.19999999999999600, 5.849999999999998800, -7.000000000000000000 ) ) ;
#180 =( NAMED_UNIT ( * ) PLANE_ANGLE_UNIT ( ) SI_UNIT ( $, .RADIAN. ) );
#181 = CARTESIAN_POINT ( 'NONE',  ( 16.30210435315187200, -5.850000000000000500, 7.000000000000000000 ) ) ;
#182 = APPLICATION_CONTEXT ( 'automotive_design' ) ;
#183 = VERTEX_POINT ( 'NONE', #289 ) ;
#184 =( NAMED_UNIT ( * ) SI_UNIT ( $, .STERADIAN. ) SOLID_ANGLE_UNIT ( ) );
#185 = VECTOR ( 'NONE', #108, 1000.000000000000000 ) ;
#186 = ORIENTED_EDGE ( 'NONE', *, *, #324, .T. ) ;
#187 = AXIS2_PLACEMENT_3D ( 'NONE', #132, #287, #249 ) ;
#188 = ORIENTED_EDGE ( 'NONE', *, *, #130, .F. ) ;
#189 = DIRECTION ( 'NONE',  ( -0.008726203243944236400, -0.9999238504775704900, 0.008726203243944236400 ) ) ;
#190 = CARTESIAN_POINT ( 'NONE',  ( -15.10205865908899600, -5.850000000000000500, 7.102104353151878200 ) ) ;
#191 = PRODUCT_DEFINITION_CONTEXT ( 'detailed design', #182, 'design' ) ;
#192 = VERTEX_POINT ( 'NONE', #314 ) ;
#193 = APPLICATION_CONTEXT ( 'automotive_design' ) ;
#194 = FILL_AREA_STYLE ('',( #86 ) ) ;
#195 = LINE ( 'NONE', #85, #36 ) ;
#196 = VERTEX_POINT ( 'NONE', #201 ) ;
#197 = AXIS2_PLACEMENT_3D ( 'NONE', #45, #47, #170 ) ;
#198 = CARTESIAN_POINT ( 'NONE',  ( -16.20000000000000300, 5.849999999999998800, -7.000000000000000000 ) ) ;
#199 = CLOSED_SHELL ( 'NONE', ( #229, #114, #256, #87, #144, #167, #91, #230, #208, #204 ) ) ;
#200 = VECTOR ( 'NONE', #242, 1000.000000000000000 ) ;
#201 = CARTESIAN_POINT ( 'NONE',  ( 15.10205865908898900, -5.850000000000000500, 7.102104353151878200 ) ) ;
#202 = AXIS2_PLACEMENT_3D ( 'NONE', #241, #38, #73 ) ;
#203 = LINE ( 'NONE', #198, #226 ) ;
#204 = ADVANCED_FACE ( 'NONE', ( #149 ), #88, .F. ) ;
#205 = DIRECTION ( 'NONE',  ( 0.0000000000000000000, -0.0000000000000000000, 1.000000000000000000 ) ) ;
#206 = ORIENTED_EDGE ( 'NONE', *, *, #153, .T. ) ;
#207 = PLANE ( 'NONE',  #197 ) ;
#208 = ADVANCED_FACE ( 'NONE', ( #234 ), #207, .T. ) ;
#209 = ORIENTED_EDGE ( 'NONE', *, *, #266, .F. ) ;
#210 = DIRECTION ( 'NONE',  ( 0.0000000000000000000, 0.9999619230641713100, 0.008726535498373953800 ) ) ;
#211 = CARTESIAN_POINT ( 'NONE',  ( 15.01042654728602200, 4.649999999999998600, 7.010472241348910700 ) ) ;
#212 = EDGE_LOOP ( 'NONE', ( #75, #107, #146, #297 ) ) ;
#213 = CARTESIAN_POINT ( 'NONE',  ( -15.00004568536423300, 5.839528954797400800, 7.000091379427114900 ) ) ;
#214 = EDGE_LOOP ( 'NONE', ( #18, #106, #135, #117 ) ) ;
#215 = CARTESIAN_POINT ( 'NONE',  ( 0.0000000000000000000, 0.0000000000000000000, 0.0000000000000000000 ) ) ;
#216 = DIRECTION ( 'NONE',  ( -0.0000000000000000000, -0.0000000000000000000, -1.000000000000000000 ) ) ;
#217 = FACE_OUTER_BOUND ( 'NONE', #292, .T. ) ;
#218 = EDGE_CURVE ( 'NONE', #159, #110, #71, .T. ) ;
#219 = VECTOR ( 'NONE', #56, 1000.000000000000000 ) ;
#220 = PRODUCT_CONTEXT ( 'NONE', #193, 'mechanical' ) ;
#221 = DIRECTION ( 'NONE',  ( -0.0000000000000000000, -0.0000000000000000000, -1.000000000000000000 ) ) ;
#222 = ORIENTED_EDGE ( 'NONE', *, *, #2, .T. ) ;
#223 = STYLED_ITEM ( 'NONE', ( #61 ), #95 ) ;
#224 = ORIENTED_EDGE ( 'NONE', *, *, #153, .F. ) ;
#225 = LINE ( 'NONE', #152, #328 ) ;
#226 = VECTOR ( 'NONE', #296, 1000.000000000000000 ) ;
#227 = ORIENTED_EDGE ( 'NONE', *, *, #232, .T. ) ;
#228 = APPLICATION_PROTOCOL_DEFINITION ( 'draft international standard', 'automotive_design', 1998, #193 ) ;
#229 = ADVANCED_FACE ( 'NONE', ( #268 ), #65, .F. ) ;
#230 = ADVANCED_FACE ( 'NONE', ( #217 ), #1, .F. ) ;
#231 = DIRECTION ( 'NONE',  ( 0.9999619230641713100, 0.008726535498373953800, 0.0000000000000000000 ) ) ;
#232 = EDGE_CURVE ( 'NONE', #334, #302, #270, .T. ) ;
#233 = LINE ( 'NONE', #80, #290 ) ;
#234 = FACE_OUTER_BOUND ( 'NONE', #139, .T. ) ;
#235 =( LENGTH_UNIT ( ) NAMED_UNIT ( * ) SI_UNIT ( .MILLI., .METRE. ) );
#236 = DIRECTION ( 'NONE',  ( -0.008726535498373953800, 0.9999619230641713100, 0.0000000000000000000 ) ) ;
#237 = ORIENTED_EDGE ( 'NONE', *, *, #2, .F. ) ;
#238 = EDGE_CURVE ( 'NONE', #240, #334, #293, .T. ) ;
#239 =( NAMED_UNIT ( * ) SI_UNIT ( $, .STERADIAN. ) SOLID_ANGLE_UNIT ( ) );
#240 = VERTEX_POINT ( 'NONE', #22 ) ;
#241 = CARTESIAN_POINT ( 'NONE',  ( -16.20000000000000300, 5.849999999999998800, 7.000000000000000000 ) ) ;
#242 = DIRECTION ( 'NONE',  ( -0.0000000000000000000, 0.0000000000000000000, -1.000000000000000000 ) ) ;
#243 = ORIENTED_EDGE ( 'NONE', *, *, #317, .T. ) ;
#244 = DIRECTION ( 'NONE',  ( -0.0000000000000000000, 0.0000000000000000000, -1.000000000000000000 ) ) ;
#245 = CARTESIAN_POINT ( 'NONE',  ( -16.20000000000000300, 5.849999999999998800, 7.000000000000000000 ) ) ;
#246 = CARTESIAN_POINT ( 'NONE',  ( 16.19999999999999600, 5.849999999999998800, 7.000000000000000000 ) ) ;
#247 = VECTOR ( 'NONE', #69, 1000.000000000000000 ) ;
#248 = LINE ( 'NONE', #98, #154 ) ;
#249 = DIRECTION ( 'NONE',  ( -0.008726535498373953800, -0.9999619230641713100, 0.0000000000000000000 ) ) ;
#250 = VERTEX_POINT ( 'NONE', #32 ) ;
#251 = PLANE ( 'NONE',  #202 ) ;
#252 = CARTESIAN_POINT ( 'NONE',  ( -16.30210435315187900, -5.850000000000000500, -7.102104353151878200 ) ) ;
#253 = VERTEX_POINT ( 'NONE', #102 ) ;
#254 = EDGE_LOOP ( 'NONE', ( #206, #151, #172, #311 ) ) ;
#255 = DIRECTION ( 'NONE',  ( -0.008726203243944236400, -0.9999238504775704900, -0.008726203243944236400 ) ) ;
#256 = ADVANCED_FACE ( 'NONE', ( #171 ), #60, .T. ) ;
#257 = DIRECTION ( 'NONE',  ( -0.008726535498373953800, 0.9999619230641713100, 0.0000000000000000000 ) ) ;
#258 = DIRECTION ( 'NONE',  ( -0.008726203243944236400, -0.9999238504775704900, 0.008726203243944236400 ) ) ;
#259 = SURFACE_STYLE_FILL_AREA ( #331 ) ;
#260 = AXIS2_PLACEMENT_3D ( 'NONE', #72, #325, #205 ) ;
#261 = ORIENTED_EDGE ( 'NONE', *, *, #301, .F. ) ;
#262 =( NAMED_UNIT ( * ) PLANE_ANGLE_UNIT ( ) SI_UNIT ( $, .RADIAN. ) );
#263 = VERTEX_POINT ( 'NONE', #284 ) ;
#264 = AXIS2_PLACEMENT_3D ( 'NONE', #162, #17, #99 ) ;
#265 = DIRECTION ( 'NONE',  ( -0.0000000000000000000, -0.0000000000000000000, -1.000000000000000000 ) ) ;
#266 = EDGE_CURVE ( 'NONE', #37, #250, #20, .T. ) ;
#267 = CARTESIAN_POINT ( 'NONE',  ( 16.19999999999999600, 5.849999999999998800, 7.000000000000000000 ) ) ;
#268 = FACE_OUTER_BOUND ( 'NONE', #169, .T. ) ;
#269 =( GEOMETRIC_REPRESENTATION_CONTEXT ( 3 ) GLOBAL_UNCERTAINTY_ASSIGNED_CONTEXT ( ( #330 ) ) GLOBAL_UNIT_ASSIGNED_CONTEXT ( ( #312, #180, #184 ) ) REPRESENTATION_CONTEXT ( 'NONE', 'WORKASPACE' ) );
#270 = LINE ( 'NONE', #29, #55 ) ;
#271 = CARTESIAN_POINT ( 'NONE',  ( -16.20000000000000300, -5.850000000000000500, 7.102104353151878200 ) ) ;
#272 = LINE ( 'NONE', #213, #176 ) ;
#273 = ORIENTED_EDGE ( 'NONE', *, *, #306, .T. ) ;
#274 = ORIENTED_EDGE ( 'NONE', *, *, #48, .F. ) ;
#275 =( GEOMETRIC_REPRESENTATION_CONTEXT ( 3 ) GLOBAL_UNCERTAINTY_ASSIGNED_CONTEXT ( ( #39 ) ) GLOBAL_UNIT_ASSIGNED_CONTEXT ( ( #235, #262, #131 ) ) REPRESENTATION_CONTEXT ( 'NONE', 'WORKASPACE' ) );
#276 = AXIS2_PLACEMENT_3D ( 'NONE', #143, #231, #257 ) ;
#277 = SHAPE_DEFINITION_REPRESENTATION ( #6, #96 ) ;
#278 = CARTESIAN_POINT ( 'NONE',  ( -16.20000000000000300, -5.850000000000000500, 7.000000000000000000 ) ) ;
#279 = VECTOR ( 'NONE', #286, 1000.000000000000000 ) ;
#280 = LINE ( 'NONE', #309, #27 ) ;
#281 = ORIENTED_EDGE ( 'NONE', *, *, #318, .T. ) ;
#282 = AXIS2_PLACEMENT_3D ( 'NONE', #278, #21, #158 ) ;
#283 = EDGE_CURVE ( 'NONE', #313, #159, #323, .T. ) ;
#284 = CARTESIAN_POINT ( 'NONE',  ( -15.01042654728602900, 4.649999999999998600, 7.010472241348910700 ) ) ;
#285 = CARTESIAN_POINT ( 'NONE',  ( -15.10205865908899600, -5.850000000000000500, 7.000000000000000000 ) ) ;
#286 = DIRECTION ( 'NONE',  ( -1.000000000000000000, -0.0000000000000000000, -0.0000000000000000000 ) ) ;
#287 = DIRECTION ( 'NONE',  ( -0.9999619230641713100, 0.008726535498373953800, 0.0000000000000000000 ) ) ;
#288 = FILL_AREA_STYLE_COLOUR ( '', #142 ) ;
#289 = CARTESIAN_POINT ( 'NONE',  ( -15.10205865908899600, -5.850000000000000500, -7.102104353151878200 ) ) ;
#290 = VECTOR ( 'NONE', #326, 1000.000000000000000 ) ;
#291 = FACE_OUTER_BOUND ( 'NONE', #3, .T. ) ;
#292 = EDGE_LOOP ( 'NONE', ( #261, #23, #273, #174 ) ) ;
#293 = LINE ( 'NONE', #245, #100 ) ;
#294 = AXIS2_PLACEMENT_3D ( 'NONE', #68, #54, #236 ) ;
#295 = EDGE_CURVE ( 'NONE', #196, #313, #4, .T. ) ;
#296 = DIRECTION ( 'NONE',  ( -0.008726203243944236400, -0.9999238504775704900, -0.008726203243944236400 ) ) ;
#297 = ORIENTED_EDGE ( 'NONE', *, *, #14, .T. ) ;
#298 = EDGE_CURVE ( 'NONE', #9, #183, #233, .T. ) ;
#299 = CARTESIAN_POINT ( 'NONE',  ( 15.10205865908898900, -5.850000000000000500, -7.102104353151878200 ) ) ;
#300 = LINE ( 'NONE', #112, #303 ) ;
#301 = EDGE_CURVE ( 'NONE', #134, #250, #173, .T. ) ;
#302 = VERTEX_POINT ( 'NONE', #190 ) ;
#303 = VECTOR ( 'NONE', #44, 1000.000000000000000 ) ;
#304 = ORIENTED_EDGE ( 'NONE', *, *, #298, .T. ) ;
#305 = CARTESIAN_POINT ( 'NONE',  ( -16.20000000000000300, 5.849999999999998800, -7.000000000000000000 ) ) ;
#306 = EDGE_CURVE ( 'NONE', #196, #37, #133, .T. ) ;
#307 = LINE ( 'NONE', #57, #200 ) ;
#308 = ORIENTED_EDGE ( 'NONE', *, *, #232, .F. ) ;
#309 = CARTESIAN_POINT ( 'NONE',  ( -16.20000000000000300, -5.850000000000000500, -7.102104353151878200 ) ) ;
#310 = ORIENTED_EDGE ( 'NONE', *, *, #306, .F. ) ;
#311 = ORIENTED_EDGE ( 'NONE', *, *, #218, .T. ) ;
#312 =( LENGTH_UNIT ( ) NAMED_UNIT ( * ) SI_UNIT ( .MILLI., .METRE. ) );
#313 = VERTEX_POINT ( 'NONE', #94 ) ;
#314 = CARTESIAN_POINT ( 'NONE',  ( -15.01042654728602900, 4.649999999999998600, -7.010472241348910700 ) ) ;
#315 = ORIENTED_EDGE ( 'NONE', *, *, #218, .F. ) ;
#316 = ORIENTED_EDGE ( 'NONE', *, *, #90, .F. ) ;
#317 = EDGE_CURVE ( 'NONE', #334, #9, #307, .T. ) ;
#318 = EDGE_CURVE ( 'NONE', #302, #183, #164, .T. ) ;
#319 = ORIENTED_EDGE ( 'NONE', *, *, #320, .T. ) ;
#320 = EDGE_CURVE ( 'NONE', #263, #302, #272, .T. ) ;
#321 = VERTEX_POINT ( 'NONE', #115 ) ;
#322 = COLOUR_RGB ( '',0.7529411764705882200, 0.7529411764705882200, 0.7529411764705882200 ) ;
#323 = LINE ( 'NONE', #13, #30 ) ;
#324 = EDGE_CURVE ( 'NONE', #159, #240, #225, .T. ) ;
#325 = DIRECTION ( 'NONE',  ( 0.0000000000000000000, 1.000000000000000000, 0.0000000000000000000 ) ) ;
#326 = DIRECTION ( 'NONE',  ( 1.000000000000000000, -0.0000000000000000000, 0.0000000000000000000 ) ) ;
#327 = MECHANICAL_DESIGN_GEOMETRIC_PRESENTATION_REPRESENTATION (  '', ( #223 ), #269 ) ;
#328 = VECTOR ( 'NONE', #15, 1000.000000000000000 ) ;
#329 = EDGE_LOOP ( 'NONE', ( #35, #157, #319, #281 ) ) ;
#330 = UNCERTAINTY_MEASURE_WITH_UNIT (LENGTH_MEASURE( 1.000000000000000100E-005 ), #312, 'distance_accuracy_value', 'NONE');
#331 = FILL_AREA_STYLE ('',( #288 ) ) ;
#332 = AXIS2_PLACEMENT_3D ( 'NONE', #177, #58, #82 ) ;
#333 = DIRECTION ( 'NONE',  ( -0.008726203243944236400, 0.9999238504775704900, 0.008726203243944236400 ) ) ;
#334 = VERTEX_POINT ( 'NONE', #66 ) ;
ENDSEC;
END-ISO-10303-21;
