ISO-10303-21;
HEADER;
FILE_DESCRIPTION (( 'STEP AP214' ),
    '1' );
FILE_NAME ('6154069.stp',
    '2016-06-30T11:26:07',
    ( '' ),
    ( '' ),
    'SwSTEP 2.0',
    'SolidWorks 2014',
    '' );
FILE_SCHEMA (( 'AUTOMOTIVE_DESIGN' ));
ENDSEC;

DATA;
#1 = ORIENTED_EDGE ( 'NONE', *, *, #134, .T. ) ;
#2 = CARTESIAN_POINT ( 'NONE',  ( -26.69999999999999900, -10.90000000000000000, 7.000000000000000000 ) ) ;
#3 = VECTOR ( 'NONE', #294, 1000.000000000000000 ) ;
#4 = ORIENTED_EDGE ( 'NONE', *, *, #106, .T. ) ;
#5 = DIRECTION ( 'NONE',  ( -1.000000000000000000, 0.0000000000000000000, 0.0000000000000000000 ) ) ;
#6 = AXIS2_PLACEMENT_3D ( 'NONE', #275, #60, #225 ) ;
#7 = VERTEX_POINT ( 'NONE', #199 ) ;
#8 = CARTESIAN_POINT ( 'NONE',  ( -25.19999999999999600, -10.90000000000000000, 7.000000000000000000 ) ) ;
#9 = VECTOR ( 'NONE', #164, 1000.000000000000000 ) ;
#10 = ADVANCED_FACE ( 'NONE', ( #302 ), #253, .F. ) ;
#11 = DIRECTION ( 'NONE',  ( 0.0000000000000000000, 0.0000000000000000000, 1.000000000000000000 ) ) ;
#12 = SURFACE_SIDE_STYLE ('',( #23 ) ) ;
#13 = DIRECTION ( 'NONE',  ( 0.0000000000000000000, -1.000000000000000000, 0.0000000000000000000 ) ) ;
#14 = DIRECTION ( 'NONE',  ( 0.0000000000000000000, 0.0000000000000000000, -1.000000000000000000 ) ) ;
#15 = ORIENTED_EDGE ( 'NONE', *, *, #240, .F. ) ;
#16 = VERTEX_POINT ( 'NONE', #108 ) ;
#17 = COLOUR_RGB ( '',0.7529411764705882200, 0.7529411764705882200, 0.7529411764705882200 ) ;
#18 =( NAMED_UNIT ( * ) SI_UNIT ( $, .STERADIAN. ) SOLID_ANGLE_UNIT ( ) );
#19 = CARTESIAN_POINT ( 'NONE',  ( -26.69999999999999900, -10.90000000000000000, 7.000000000000000000 ) ) ;
#20 = EDGE_LOOP ( 'NONE', ( #95, #113, #241, #96 ) ) ;
#21 = LINE ( 'NONE', #268, #222 ) ;
#22 = ORIENTED_EDGE ( 'NONE', *, *, #249, .T. ) ;
#23 = SURFACE_STYLE_FILL_AREA ( #172 ) ;
#24 = VECTOR ( 'NONE', #324, 1000.000000000000000 ) ;
#25 = ORIENTED_EDGE ( 'NONE', *, *, #126, .F. ) ;
#26 = AXIS2_PLACEMENT_3D ( 'NONE', #40, #229, #62 ) ;
#27 = LINE ( 'NONE', #308, #234 ) ;
#28 = EDGE_LOOP ( 'NONE', ( #63, #163, #208, #190 ) ) ;
#29 = ORIENTED_EDGE ( 'NONE', *, *, #134, .F. ) ;
#30 = CARTESIAN_POINT ( 'NONE',  ( 25.19999999999999600, 9.400000000000000400, -7.000000000000000000 ) ) ;
#31 = EDGE_LOOP ( 'NONE', ( #235, #204, #220, #306 ) ) ;
#32 = EDGE_LOOP ( 'NONE', ( #29, #261, #72, #283 ) ) ;
#33 = VECTOR ( 'NONE', #329, 1000.000000000000000 ) ;
#34 = DIRECTION ( 'NONE',  ( 0.0000000000000000000, 1.000000000000000000, 0.0000000000000000000 ) ) ;
#35 = DIRECTION ( 'NONE',  ( 0.0000000000000000000, 0.0000000000000000000, -1.000000000000000000 ) ) ;
#36 = ADVANCED_FACE ( 'NONE', ( #87 ), #140, .F. ) ;
#37 = CARTESIAN_POINT ( 'NONE',  ( -25.19999999999999600, 9.400000000000000400, -7.000000000000000000 ) ) ;
#38 =( LENGTH_UNIT ( ) NAMED_UNIT ( * ) SI_UNIT ( .MILLI., .METRE. ) );
#39 = CARTESIAN_POINT ( 'NONE',  ( -26.69999999999999900, -10.90000000000000000, 7.000000000000000000 ) ) ;
#40 = CARTESIAN_POINT ( 'NONE',  ( -26.69999999999999900, -10.90000000000000000, 7.000000000000000000 ) ) ;
#41 = PRODUCT_DEFINITION ( 'UNKNOWN', '', #237, #218 ) ;
#42 = UNCERTAINTY_MEASURE_WITH_UNIT (LENGTH_MEASURE( 1.000000000000000100E-005 ), #252, 'distance_accuracy_value', 'NONE');
#43 = DIRECTION ( 'NONE',  ( -0.0000000000000000000, -0.0000000000000000000, -1.000000000000000000 ) ) ;
#44 = ORIENTED_EDGE ( 'NONE', *, *, #59, .T. ) ;
#45 = VECTOR ( 'NONE', #327, 1000.000000000000000 ) ;
#46 = AXIS2_PLACEMENT_3D ( 'NONE', #8, #103, #35 ) ;
#47 = DIRECTION ( 'NONE',  ( 0.0000000000000000000, -0.0000000000000000000, 1.000000000000000000 ) ) ;
#48 = LINE ( 'NONE', #80, #333 ) ;
#49 = VERTEX_POINT ( 'NONE', #83 ) ;
#50 = VECTOR ( 'NONE', #14, 1000.000000000000000 ) ;
#51 = EDGE_CURVE ( 'NONE', #243, #49, #160, .T. ) ;
#52 = VECTOR ( 'NONE', #34, 1000.000000000000000 ) ;
#53 = EDGE_LOOP ( 'NONE', ( #174, #265, #179, #4 ) ) ;
#54 = CARTESIAN_POINT ( 'NONE',  ( 25.19999999999999600, -10.90000000000000000, -7.000000000000000000 ) ) ;
#55 =( GEOMETRIC_REPRESENTATION_CONTEXT ( 3 ) GLOBAL_UNCERTAINTY_ASSIGNED_CONTEXT ( ( #309 ) ) GLOBAL_UNIT_ASSIGNED_CONTEXT ( ( #325, #177, #18 ) ) REPRESENTATION_CONTEXT ( 'NONE', 'WORKASPACE' ) );
#56 = VERTEX_POINT ( 'NONE', #85 ) ;
#57 = CARTESIAN_POINT ( 'NONE',  ( 25.19999999999999600, 9.400000000000000400, 7.000000000000000000 ) ) ;
#58 = VECTOR ( 'NONE', #219, 1000.000000000000000 ) ;
#59 = EDGE_CURVE ( 'NONE', #281, #56, #236, .T. ) ;
#60 = DIRECTION ( 'NONE',  ( 0.0000000000000000000, 1.000000000000000000, 0.0000000000000000000 ) ) ;
#61 =( NAMED_UNIT ( * ) SI_UNIT ( $, .STERADIAN. ) SOLID_ANGLE_UNIT ( ) );
#62 = DIRECTION ( 'NONE',  ( 0.0000000000000000000, 0.0000000000000000000, -1.000000000000000000 ) ) ;
#63 = ORIENTED_EDGE ( 'NONE', *, *, #167, .F. ) ;
#64 = CARTESIAN_POINT ( 'NONE',  ( 26.69999999999999900, -10.90000000000000000, 7.000000000000000000 ) ) ;
#65 = PRODUCT_DEFINITION_SHAPE ( 'NONE', 'NONE',  #41 ) ;
#66 = EDGE_CURVE ( 'NONE', #238, #184, #154, .T. ) ;
#67 = DIRECTION ( 'NONE',  ( 0.0000000000000000000, 1.000000000000000000, 0.0000000000000000000 ) ) ;
#68 = LINE ( 'NONE', #161, #3 ) ;
#69 = ORIENTED_EDGE ( 'NONE', *, *, #130, .T. ) ;
#70 = CLOSED_SHELL ( 'NONE', ( #138, #251, #105, #320, #36, #81, #10, #169, #224, #271 ) ) ;
#71 = VECTOR ( 'NONE', #75, 1000.000000000000000 ) ;
#72 = ORIENTED_EDGE ( 'NONE', *, *, #126, .T. ) ;
#73 = VECTOR ( 'NONE', #142, 1000.000000000000000 ) ;
#74 = DIRECTION ( 'NONE',  ( 1.000000000000000000, 0.0000000000000000000, 0.0000000000000000000 ) ) ;
#75 = DIRECTION ( 'NONE',  ( -1.000000000000000000, -0.0000000000000000000, -0.0000000000000000000 ) ) ;
#76 = DIRECTION ( 'NONE',  ( 0.0000000000000000000, -1.000000000000000000, 0.0000000000000000000 ) ) ;
#77 = ORIENTED_EDGE ( 'NONE', *, *, #240, .T. ) ;
#78 = DIRECTION ( 'NONE',  ( 0.0000000000000000000, 0.0000000000000000000, -1.000000000000000000 ) ) ;
#79 = FACE_OUTER_BOUND ( 'NONE', #28, .T. ) ;
#80 = CARTESIAN_POINT ( 'NONE',  ( -26.69999999999999900, 10.90000000000000000, 7.000000000000000000 ) ) ;
#81 = ADVANCED_FACE ( 'NONE', ( #287 ), #176, .F. ) ;
#82 =( NAMED_UNIT ( * ) PLANE_ANGLE_UNIT ( ) SI_UNIT ( $, .RADIAN. ) );
#83 = CARTESIAN_POINT ( 'NONE',  ( 26.69999999999999900, -10.90000000000000000, 7.000000000000000000 ) ) ;
#84 = DIRECTION ( 'NONE',  ( 0.0000000000000000000, 0.0000000000000000000, 1.000000000000000000 ) ) ;
#85 = CARTESIAN_POINT ( 'NONE',  ( -25.19999999999999600, 9.400000000000000400, 7.000000000000000000 ) ) ;
#86 = ORIENTED_EDGE ( 'NONE', *, *, #114, .F. ) ;
#87 = FACE_OUTER_BOUND ( 'NONE', #53, .T. ) ;
#88 = ORIENTED_EDGE ( 'NONE', *, *, #66, .T. ) ;
#89 = CARTESIAN_POINT ( 'NONE',  ( 26.69999999999999900, -10.90000000000000000, -7.000000000000000000 ) ) ;
#90 = AXIS2_PLACEMENT_3D ( 'NONE', #173, #13, #201 ) ;
#91 = VECTOR ( 'NONE', #259, 1000.000000000000000 ) ;
#92 = MANIFOLD_SOLID_BREP ( 'Shell3', #70 ) ;
#93 = CARTESIAN_POINT ( 'NONE',  ( -25.19999999999999600, -10.90000000000000000, -7.000000000000000000 ) ) ;
#94 = EDGE_CURVE ( 'NONE', #184, #334, #262, .T. ) ;
#95 = ORIENTED_EDGE ( 'NONE', *, *, #114, .T. ) ;
#96 = ORIENTED_EDGE ( 'NONE', *, *, #277, .T. ) ;
#97 = ORIENTED_EDGE ( 'NONE', *, *, #99, .T. ) ;
#98 = LINE ( 'NONE', #64, #33 ) ;
#99 = EDGE_CURVE ( 'NONE', #281, #184, #145, .T. ) ;
#100 = EDGE_LOOP ( 'NONE', ( #228, #22, #153, #149 ) ) ;
#101 = LINE ( 'NONE', #19, #246 ) ;
#102 = CARTESIAN_POINT ( 'NONE',  ( 25.19999999999999600, -10.90000000000000000, 7.000000000000000000 ) ) ;
#103 = DIRECTION ( 'NONE',  ( 1.000000000000000000, 0.0000000000000000000, 0.0000000000000000000 ) ) ;
#104 = CARTESIAN_POINT ( 'NONE',  ( -25.19999999999999600, -10.90000000000000000, 7.000000000000000000 ) ) ;
#105 = ADVANCED_FACE ( 'NONE', ( #115 ), #112, .T. ) ;
#106 = EDGE_CURVE ( 'NONE', #326, #286, #187, .T. ) ;
#107 = FACE_OUTER_BOUND ( 'NONE', #32, .T. ) ;
#108 = CARTESIAN_POINT ( 'NONE',  ( -26.69999999999999900, 10.90000000000000000, -7.000000000000000000 ) ) ;
#109 = PRODUCT_CONTEXT ( 'NONE', #322, 'mechanical' ) ;
#110 = CARTESIAN_POINT ( 'NONE',  ( 25.19999999999999600, 0.0000000000000000000, -7.000000000000000000 ) ) ;
#111 = FILL_AREA_STYLE ('',( #280 ) ) ;
#112 = PLANE ( 'NONE',  #263 ) ;
#113 = ORIENTED_EDGE ( 'NONE', *, *, #117, .F. ) ;
#114 = EDGE_CURVE ( 'NONE', #16, #123, #317, .T. ) ;
#115 = FACE_OUTER_BOUND ( 'NONE', #332, .T. ) ;
#116 = CARTESIAN_POINT ( 'NONE',  ( 26.69999999999999900, -10.90000000000000000, 7.000000000000000000 ) ) ;
#117 = EDGE_CURVE ( 'NONE', #7, #123, #101, .T. ) ;
#118 = DIRECTION ( 'NONE',  ( 0.0000000000000000000, 1.000000000000000000, 0.0000000000000000000 ) ) ;
#119 = ORIENTED_EDGE ( 'NONE', *, *, #99, .F. ) ;
#120 = LINE ( 'NONE', #133, #52 ) ;
#121 = PRESENTATION_LAYER_ASSIGNMENT (  '', '', ( #192 ) ) ;
#122 = AXIS2_PLACEMENT_3D ( 'NONE', #197, #84, #278 ) ;
#123 = VERTEX_POINT ( 'NONE', #305 ) ;
#124 = LINE ( 'NONE', #217, #58 ) ;
#125 = EDGE_CURVE ( 'NONE', #49, #127, #98, .T. ) ;
#126 = EDGE_CURVE ( 'NONE', #56, #311, #181, .T. ) ;
#127 = VERTEX_POINT ( 'NONE', #206 ) ;
#128 = SHAPE_DEFINITION_REPRESENTATION ( #65, #292 ) ;
#129 = DIRECTION ( 'NONE',  ( 0.0000000000000000000, 0.0000000000000000000, -1.000000000000000000 ) ) ;
#130 = EDGE_CURVE ( 'NONE', #56, #334, #165, .T. ) ;
#131 = EDGE_CURVE ( 'NONE', #49, #326, #307, .T. ) ;
#132 = CARTESIAN_POINT ( 'NONE',  ( -26.69999999999999900, 10.90000000000000000, -7.000000000000000000 ) ) ;
#133 = CARTESIAN_POINT ( 'NONE',  ( 25.19999999999999600, 0.0000000000000000000, 7.000000000000000000 ) ) ;
#134 = EDGE_CURVE ( 'NONE', #334, #158, #27, .T. ) ;
#135 = EDGE_LOOP ( 'NONE', ( #211, #119, #44, #69 ) ) ;
#136 = DIRECTION ( 'NONE',  ( -1.000000000000000000, 0.0000000000000000000, -0.0000000000000000000 ) ) ;
#137 = VECTOR ( 'NONE', #316, 1000.000000000000000 ) ;
#138 = ADVANCED_FACE ( 'NONE', ( #79 ), #148, .F. ) ;
#139 = CARTESIAN_POINT ( 'NONE',  ( 26.69999999999999900, -10.90000000000000000, 7.000000000000000000 ) ) ;
#140 = PLANE ( 'NONE',  #90 ) ;
#141 = APPLICATION_PROTOCOL_DEFINITION ( 'draft international standard', 'automotive_design', 1998, #301 ) ;
#142 = DIRECTION ( 'NONE',  ( -1.000000000000000000, 0.0000000000000000000, 0.0000000000000000000 ) ) ;
#143 = ORIENTED_EDGE ( 'NONE', *, *, #59, .F. ) ;
#144 = SURFACE_STYLE_USAGE ( .BOTH. , #303 ) ;
#145 = LINE ( 'NONE', #254, #50 ) ;
#146 = DIRECTION ( 'NONE',  ( -1.000000000000000000, 0.0000000000000000000, -0.0000000000000000000 ) ) ;
#147 = CARTESIAN_POINT ( 'NONE',  ( -25.19999999999999600, 9.399999999999998600, 7.000000000000000000 ) ) ;
#148 = PLANE ( 'NONE',  #330 ) ;
#149 = ORIENTED_EDGE ( 'NONE', *, *, #125, .F. ) ;
#150 = PRESENTATION_LAYER_ASSIGNMENT (  '', '', ( #203 ) ) ;
#151 = VECTOR ( 'NONE', #74, 1000.000000000000000 ) ;
#152 = MECHANICAL_DESIGN_GEOMETRIC_PRESENTATION_REPRESENTATION (  '', ( #203 ), #295 ) ;
#153 = ORIENTED_EDGE ( 'NONE', *, *, #189, .T. ) ;
#154 = LINE ( 'NONE', #110, #24 ) ;
#155 = EDGE_CURVE ( 'NONE', #127, #286, #297, .T. ) ;
#156 = EDGE_LOOP ( 'NONE', ( #233, #267, #77, #97 ) ) ;
#157 = VECTOR ( 'NONE', #67, 1000.000000000000000 ) ;
#158 = VERTEX_POINT ( 'NONE', #93 ) ;
#159 = EDGE_CURVE ( 'NONE', #7, #311, #239, .T. ) ;
#160 = LINE ( 'NONE', #39, #230 ) ;
#161 = CARTESIAN_POINT ( 'NONE',  ( -26.69999999999999900, -10.90000000000000000, -7.000000000000000000 ) ) ;
#162 = CARTESIAN_POINT ( 'NONE',  ( -26.69999999999999900, 10.90000000000000000, 7.000000000000000000 ) ) ;
#163 = ORIENTED_EDGE ( 'NONE', *, *, #159, .F. ) ;
#164 = DIRECTION ( 'NONE',  ( -0.0000000000000000000, -1.000000000000000000, -0.0000000000000000000 ) ) ;
#165 = LINE ( 'NONE', #147, #91 ) ;
#166 = AXIS2_PLACEMENT_3D ( 'NONE', #139, #170, #11 ) ;
#167 = EDGE_CURVE ( 'NONE', #311, #158, #21, .T. ) ;
#168 = PLANE ( 'NONE',  #46 ) ;
#169 = ADVANCED_FACE ( 'NONE', ( #284 ), #293, .T. ) ;
#170 = DIRECTION ( 'NONE',  ( -1.000000000000000000, 0.0000000000000000000, 0.0000000000000000000 ) ) ;
#171 = EDGE_CURVE ( 'NONE', #326, #212, #213, .T. ) ;
#172 = FILL_AREA_STYLE ('',( #223 ) ) ;
#173 = CARTESIAN_POINT ( 'NONE',  ( -26.69999999999999900, 10.90000000000000000, 7.000000000000000000 ) ) ;
#174 = ORIENTED_EDGE ( 'NONE', *, *, #210, .T. ) ;
#175 = ORIENTED_EDGE ( 'NONE', *, *, #210, .F. ) ;
#176 = PLANE ( 'NONE',  #26 ) ;
#177 =( NAMED_UNIT ( * ) PLANE_ANGLE_UNIT ( ) SI_UNIT ( $, .RADIAN. ) );
#178 = CARTESIAN_POINT ( 'NONE',  ( -26.69999999999999900, -10.90000000000000000, -7.000000000000000000 ) ) ;
#179 = ORIENTED_EDGE ( 'NONE', *, *, #171, .F. ) ;
#180 = CARTESIAN_POINT ( 'NONE',  ( -25.19999999999999600, 0.0000000000000000000, 7.000000000000000000 ) ) ;
#181 = LINE ( 'NONE', #180, #312 ) ;
#182 = CARTESIAN_POINT ( 'NONE',  ( -26.69999999999999900, -10.90000000000000000, 7.000000000000000000 ) ) ;
#183 = ORIENTED_EDGE ( 'NONE', *, *, #51, .T. ) ;
#184 = VERTEX_POINT ( 'NONE', #30 ) ;
#185 = COLOUR_RGB ( '',0.7529411764705882200, 0.7529411764705882200, 0.7529411764705882200 ) ;
#186 = ORIENTED_EDGE ( 'NONE', *, *, #215, .F. ) ;
#187 = LINE ( 'NONE', #205, #328 ) ;
#188 = PRODUCT_RELATED_PRODUCT_CATEGORY ( 'part', '', ( #276 ) ) ;
#189 = EDGE_CURVE ( 'NONE', #238, #127, #68, .T. ) ;
#190 = ORIENTED_EDGE ( 'NONE', *, *, #215, .T. ) ;
#191 = DIRECTION ( 'NONE',  ( 0.0000000000000000000, 0.0000000000000000000, 1.000000000000000000 ) ) ;
#192 = STYLED_ITEM ( 'NONE', ( #291 ), #92 ) ;
#193 = VECTOR ( 'NONE', #231, 1000.000000000000000 ) ;
#194 = CARTESIAN_POINT ( 'NONE',  ( -26.69999999999999900, 9.400000000000000400, 7.000000000000000000 ) ) ;
#195 = CARTESIAN_POINT ( 'NONE',  ( 0.0000000000000000000, 0.0000000000000000000, 7.000000000000000000 ) ) ;
#196 = ORIENTED_EDGE ( 'NONE', *, *, #189, .F. ) ;
#197 = CARTESIAN_POINT ( 'NONE',  ( 0.0000000000000000000, 0.0000000000000000000, 0.0000000000000000000 ) ) ;
#198 = LINE ( 'NONE', #221, #260 ) ;
#199 = CARTESIAN_POINT ( 'NONE',  ( -26.69999999999999900, -10.90000000000000000, 7.000000000000000000 ) ) ;
#200 = SURFACE_STYLE_USAGE ( .BOTH. , #12 ) ;
#201 = DIRECTION ( 'NONE',  ( 0.0000000000000000000, -0.0000000000000000000, -1.000000000000000000 ) ) ;
#202 = CARTESIAN_POINT ( 'NONE',  ( 0.0000000000000000000, 9.400000000000000400, -7.000000000000000000 ) ) ;
#203 = STYLED_ITEM ( 'NONE', ( #290 ), #292 ) ;
#204 = ORIENTED_EDGE ( 'NONE', *, *, #106, .F. ) ;
#205 = CARTESIAN_POINT ( 'NONE',  ( 26.69999999999999900, 10.90000000000000000, 7.000000000000000000 ) ) ;
#206 = CARTESIAN_POINT ( 'NONE',  ( 26.69999999999999900, -10.90000000000000000, -7.000000000000000000 ) ) ;
#207 = DIRECTION ( 'NONE',  ( 0.0000000000000000000, 1.000000000000000000, 0.0000000000000000000 ) ) ;
#208 = ORIENTED_EDGE ( 'NONE', *, *, #117, .T. ) ;
#209 = FACE_OUTER_BOUND ( 'NONE', #135, .T. ) ;
#210 = EDGE_CURVE ( 'NONE', #286, #16, #289, .T. ) ;
#211 = ORIENTED_EDGE ( 'NONE', *, *, #94, .F. ) ;
#212 = VERTEX_POINT ( 'NONE', #162 ) ;
#213 = LINE ( 'NONE', #242, #71 ) ;
#214 = ORIENTED_EDGE ( 'NONE', *, *, #94, .T. ) ;
#215 = EDGE_CURVE ( 'NONE', #123, #158, #124, .T. ) ;
#216 = SURFACE_STYLE_FILL_AREA ( #111 ) ;
#217 = CARTESIAN_POINT ( 'NONE',  ( -26.69999999999999900, -10.90000000000000000, -7.000000000000000000 ) ) ;
#218 = PRODUCT_DEFINITION_CONTEXT ( 'detailed design', #301, 'design' ) ;
#219 = DIRECTION ( 'NONE',  ( 1.000000000000000000, 0.0000000000000000000, 0.0000000000000000000 ) ) ;
#220 = ORIENTED_EDGE ( 'NONE', *, *, #131, .F. ) ;
#221 = CARTESIAN_POINT ( 'NONE',  ( 25.19999999999999600, -10.90000000000000000, 7.000000000000000000 ) ) ;
#222 = VECTOR ( 'NONE', #129, 1000.000000000000000 ) ;
#223 = FILL_AREA_STYLE_COLOUR ( '', #185 ) ;
#224 = ADVANCED_FACE ( 'NONE', ( #209 ), #245, .T. ) ;
#225 = DIRECTION ( 'NONE',  ( 0.0000000000000000000, -0.0000000000000000000, 1.000000000000000000 ) ) ;
#226 = EDGE_CURVE ( 'NONE', #212, #7, #266, .T. ) ;
#227 =( NAMED_UNIT ( * ) PLANE_ANGLE_UNIT ( ) SI_UNIT ( $, .RADIAN. ) );
#228 = ORIENTED_EDGE ( 'NONE', *, *, #51, .F. ) ;
#229 = DIRECTION ( 'NONE',  ( 1.000000000000000000, 0.0000000000000000000, 0.0000000000000000000 ) ) ;
#230 = VECTOR ( 'NONE', #323, 1000.000000000000000 ) ;
#231 = DIRECTION ( 'NONE',  ( -1.000000000000000000, 0.0000000000000000000, 0.0000000000000000000 ) ) ;
#232 =( GEOMETRIC_REPRESENTATION_CONTEXT ( 3 ) GLOBAL_UNCERTAINTY_ASSIGNED_CONTEXT ( ( #42 ) ) GLOBAL_UNIT_ASSIGNED_CONTEXT ( ( #252, #82, #274 ) ) REPRESENTATION_CONTEXT ( 'NONE', 'WORKASPACE' ) );
#233 = ORIENTED_EDGE ( 'NONE', *, *, #66, .F. ) ;
#234 = VECTOR ( 'NONE', #331, 1000.000000000000000 ) ;
#235 = ORIENTED_EDGE ( 'NONE', *, *, #155, .T. ) ;
#236 = LINE ( 'NONE', #279, #73 ) ;
#237 = PRODUCT_DEFINITION_FORMATION_WITH_SPECIFIED_SOURCE ( 'ANY', '', #276, .NOT_KNOWN. ) ;
#238 = VERTEX_POINT ( 'NONE', #54 ) ;
#239 = LINE ( 'NONE', #2, #151 ) ;
#240 = EDGE_CURVE ( 'NONE', #243, #281, #120, .T. ) ;
#241 = ORIENTED_EDGE ( 'NONE', *, *, #226, .F. ) ;
#242 = CARTESIAN_POINT ( 'NONE',  ( -26.69999999999999900, 10.90000000000000000, 7.000000000000000000 ) ) ;
#243 = VERTEX_POINT ( 'NONE', #102 ) ;
#244 = UNCERTAINTY_MEASURE_WITH_UNIT (LENGTH_MEASURE( 1.000000000000000100E-005 ), #38, 'distance_accuracy_value', 'NONE');
#245 = PLANE ( 'NONE',  #264 ) ;
#246 = VECTOR ( 'NONE', #257, 1000.000000000000000 ) ;
#247 = PLANE ( 'NONE',  #248 ) ;
#248 = AXIS2_PLACEMENT_3D ( 'NONE', #195, #298, #136 ) ;
#249 = EDGE_CURVE ( 'NONE', #243, #238, #198, .T. ) ;
#250 = CARTESIAN_POINT ( 'NONE',  ( 26.69999999999999900, 10.90000000000000000, -7.000000000000000000 ) ) ;
#251 = ADVANCED_FACE ( 'NONE', ( #273 ), #247, .F. ) ;
#252 =( LENGTH_UNIT ( ) NAMED_UNIT ( * ) SI_UNIT ( .MILLI., .METRE. ) );
#253 = PLANE ( 'NONE',  #6 ) ;
#254 = CARTESIAN_POINT ( 'NONE',  ( 25.19999999999999600, 9.400000000000000400, 7.000000000000000000 ) ) ;
#255 = CARTESIAN_POINT ( 'NONE',  ( 0.0000000000000000000, 0.0000000000000000000, -7.000000000000000000 ) ) ;
#256 = ORIENTED_EDGE ( 'NONE', *, *, #155, .F. ) ;
#257 = DIRECTION ( 'NONE',  ( -0.0000000000000000000, -0.0000000000000000000, -1.000000000000000000 ) ) ;
#258 = VECTOR ( 'NONE', #118, 1000.000000000000000 ) ;
#259 = DIRECTION ( 'NONE',  ( 0.0000000000000000000, 0.0000000000000000000, -1.000000000000000000 ) ) ;
#260 = VECTOR ( 'NONE', #78, 1000.000000000000000 ) ;
#261 = ORIENTED_EDGE ( 'NONE', *, *, #130, .F. ) ;
#262 = LINE ( 'NONE', #202, #193 ) ;
#263 = AXIS2_PLACEMENT_3D ( 'NONE', #255, #304, #146 ) ;
#264 = AXIS2_PLACEMENT_3D ( 'NONE', #194, #76, #269 ) ;
#265 = ORIENTED_EDGE ( 'NONE', *, *, #277, .F. ) ;
#266 = LINE ( 'NONE', #318, #9 ) ;
#267 = ORIENTED_EDGE ( 'NONE', *, *, #249, .F. ) ;
#268 = CARTESIAN_POINT ( 'NONE',  ( -25.19999999999999600, -10.90000000000000000, 7.000000000000000000 ) ) ;
#269 = DIRECTION ( 'NONE',  ( 0.0000000000000000000, -0.0000000000000000000, -1.000000000000000000 ) ) ;
#270 = PLANE ( 'NONE',  #166 ) ;
#271 = ADVANCED_FACE ( 'NONE', ( #107 ), #168, .T. ) ;
#272 = DIRECTION ( 'NONE',  ( -0.0000000000000000000, -0.0000000000000000000, -1.000000000000000000 ) ) ;
#273 = FACE_OUTER_BOUND ( 'NONE', #296, .T. ) ;
#274 =( NAMED_UNIT ( * ) SI_UNIT ( $, .STERADIAN. ) SOLID_ANGLE_UNIT ( ) );
#275 = CARTESIAN_POINT ( 'NONE',  ( -26.69999999999999900, -10.90000000000000000, 7.000000000000000000 ) ) ;
#276 = PRODUCT ( '6154069', '6154069', '', ( #109 ) ) ;
#277 = EDGE_CURVE ( 'NONE', #212, #16, #48, .T. ) ;
#278 = DIRECTION ( 'NONE',  ( 1.000000000000000000, 0.0000000000000000000, 0.0000000000000000000 ) ) ;
#279 = CARTESIAN_POINT ( 'NONE',  ( 0.0000000000000000000, 9.400000000000000400, 7.000000000000000000 ) ) ;
#280 = FILL_AREA_STYLE_COLOUR ( '', #17 ) ;
#281 = VERTEX_POINT ( 'NONE', #57 ) ;
#282 = DIRECTION ( 'NONE',  ( 0.0000000000000000000, -1.000000000000000000, 0.0000000000000000000 ) ) ;
#283 = ORIENTED_EDGE ( 'NONE', *, *, #167, .T. ) ;
#284 = FACE_OUTER_BOUND ( 'NONE', #156, .T. ) ;
#285 = AXIS2_PLACEMENT_3D ( 'NONE', #314, #5, #191 ) ;
#286 = VERTEX_POINT ( 'NONE', #250 ) ;
#287 = FACE_OUTER_BOUND ( 'NONE', #20, .T. ) ;
#288 = ORIENTED_EDGE ( 'NONE', *, *, #159, .T. ) ;
#289 = LINE ( 'NONE', #132, #137 ) ;
#290 = PRESENTATION_STYLE_ASSIGNMENT (( #200 ) ) ;
#291 = PRESENTATION_STYLE_ASSIGNMENT (( #144 ) ) ;
#292 = ADVANCED_BREP_SHAPE_REPRESENTATION ( '6154069', ( #92, #122 ), #232 ) ;
#293 = PLANE ( 'NONE',  #285 ) ;
#294 = DIRECTION ( 'NONE',  ( 1.000000000000000000, 0.0000000000000000000, 0.0000000000000000000 ) ) ;
#295 =( GEOMETRIC_REPRESENTATION_CONTEXT ( 3 ) GLOBAL_UNCERTAINTY_ASSIGNED_CONTEXT ( ( #244 ) ) GLOBAL_UNIT_ASSIGNED_CONTEXT ( ( #38, #227, #61 ) ) REPRESENTATION_CONTEXT ( 'NONE', 'WORKASPACE' ) );
#296 = EDGE_LOOP ( 'NONE', ( #15, #183, #315, #300, #310, #288, #25, #143 ) ) ;
#297 = LINE ( 'NONE', #89, #157 ) ;
#298 = DIRECTION ( 'NONE',  ( 0.0000000000000000000, 0.0000000000000000000, -1.000000000000000000 ) ) ;
#299 = APPLICATION_PROTOCOL_DEFINITION ( 'draft international standard', 'automotive_design', 1998, #322 ) ;
#300 = ORIENTED_EDGE ( 'NONE', *, *, #171, .T. ) ;
#301 = APPLICATION_CONTEXT ( 'automotive_design' ) ;
#302 = FACE_OUTER_BOUND ( 'NONE', #100, .T. ) ;
#303 = SURFACE_SIDE_STYLE ('',( #216 ) ) ;
#304 = DIRECTION ( 'NONE',  ( 0.0000000000000000000, 0.0000000000000000000, -1.000000000000000000 ) ) ;
#305 = CARTESIAN_POINT ( 'NONE',  ( -26.69999999999999900, -10.90000000000000000, -7.000000000000000000 ) ) ;
#306 = ORIENTED_EDGE ( 'NONE', *, *, #125, .T. ) ;
#307 = LINE ( 'NONE', #116, #258 ) ;
#308 = CARTESIAN_POINT ( 'NONE',  ( -25.19999999999999600, 0.0000000000000000000, -7.000000000000000000 ) ) ;
#309 = UNCERTAINTY_MEASURE_WITH_UNIT (LENGTH_MEASURE( 1.000000000000000100E-005 ), #325, 'distance_accuracy_value', 'NONE');
#310 = ORIENTED_EDGE ( 'NONE', *, *, #226, .T. ) ;
#311 = VERTEX_POINT ( 'NONE', #104 ) ;
#312 = VECTOR ( 'NONE', #282, 1000.000000000000000 ) ;
#313 = MECHANICAL_DESIGN_GEOMETRIC_PRESENTATION_REPRESENTATION (  '', ( #192 ), #55 ) ;
#314 = CARTESIAN_POINT ( 'NONE',  ( 25.19999999999999600, -10.90000000000000000, 7.000000000000000000 ) ) ;
#315 = ORIENTED_EDGE ( 'NONE', *, *, #131, .T. ) ;
#316 = DIRECTION ( 'NONE',  ( -1.000000000000000000, -0.0000000000000000000, -0.0000000000000000000 ) ) ;
#317 = LINE ( 'NONE', #178, #45 ) ;
#318 = CARTESIAN_POINT ( 'NONE',  ( -26.69999999999999900, -10.90000000000000000, 7.000000000000000000 ) ) ;
#319 = CARTESIAN_POINT ( 'NONE',  ( 26.69999999999999900, 10.90000000000000000, 7.000000000000000000 ) ) ;
#320 = ADVANCED_FACE ( 'NONE', ( #321 ), #270, .F. ) ;
#321 = FACE_OUTER_BOUND ( 'NONE', #31, .T. ) ;
#322 = APPLICATION_CONTEXT ( 'automotive_design' ) ;
#323 = DIRECTION ( 'NONE',  ( 1.000000000000000000, 0.0000000000000000000, 0.0000000000000000000 ) ) ;
#324 = DIRECTION ( 'NONE',  ( 0.0000000000000000000, 1.000000000000000000, 0.0000000000000000000 ) ) ;
#325 =( LENGTH_UNIT ( ) NAMED_UNIT ( * ) SI_UNIT ( .MILLI., .METRE. ) );
#326 = VERTEX_POINT ( 'NONE', #319 ) ;
#327 = DIRECTION ( 'NONE',  ( -0.0000000000000000000, -1.000000000000000000, -0.0000000000000000000 ) ) ;
#328 = VECTOR ( 'NONE', #43, 1000.000000000000000 ) ;
#329 = DIRECTION ( 'NONE',  ( -0.0000000000000000000, -0.0000000000000000000, -1.000000000000000000 ) ) ;
#330 = AXIS2_PLACEMENT_3D ( 'NONE', #182, #207, #47 ) ;
#331 = DIRECTION ( 'NONE',  ( 0.0000000000000000000, -1.000000000000000000, 0.0000000000000000000 ) ) ;
#332 = EDGE_LOOP ( 'NONE', ( #196, #88, #214, #1, #186, #86, #175, #256 ) ) ;
#333 = VECTOR ( 'NONE', #272, 1000.000000000000000 ) ;
#334 = VERTEX_POINT ( 'NONE', #37 ) ;
ENDSEC;
END-ISO-10303-21;
