ISO-10303-21;
HEADER;
FILE_DESCRIPTION (( 'STEP AP214' ),
    '1' );
FILE_NAME ('6154522.STEP',
    '2016-06-28T13:59:18',
    ( '' ),
    ( '' ),
    'SwSTEP 2.0',
    'SolidWorks 2014',
    '' );
FILE_SCHEMA (( 'AUTOMOTIVE_DESIGN' ));
ENDSEC;

DATA;
#1 = ADVANCED_BREP_SHAPE_REPRESENTATION ( '6154522', ( #225, #57 ), #88 ) ;
#2 = CARTESIAN_POINT ( 'NONE',  ( -5.499937834500955500, 5.849999999999997900, 16.30000000000000100 ) ) ;
#3 = ORIENTED_EDGE ( 'NONE', *, *, #194, .F. ) ;
#4 = DIRECTION ( 'NONE',  ( -1.324586690150490900E-018, 0.008552009086826841900, 0.9999634309016399700 ) ) ;
#5 = ORIENTED_EDGE ( 'NONE', *, *, #190, .T. ) ;
#6 = ORIENTED_EDGE ( 'NONE', *, *, #194, .T. ) ;
#7 = CARTESIAN_POINT ( 'NONE',  ( 5.599999999999999600, -5.849999999999999600, 16.30000000000000100 ) ) ;
#8 = VERTEX_POINT ( 'NONE', #207 ) ;
#9 = DIRECTION ( 'NONE',  ( 0.0000000000000000000, 0.0000000000000000000, -1.000000000000000000 ) ) ;
#10 = UNCERTAINTY_MEASURE_WITH_UNIT (LENGTH_MEASURE( 1.000000000000000100E-005 ), #314, 'distance_accuracy_value', 'NONE');
#11 = DIRECTION ( 'NONE',  ( -0.9999634309016399700, 0.008552009086826687500, 0.0000000000000000000 ) ) ;
#12 = PRODUCT ( '6154522', '6154522', '', ( #238 ) ) ;
#13 = ORIENTED_EDGE ( 'NONE', *, *, #277, .T. ) ;
#14 = CARTESIAN_POINT ( 'NONE',  ( 5.599999999999999600, 4.649999999999999500, 15.01015673618313800 ) ) ;
#15 = VERTEX_POINT ( 'NONE', #270 ) ;
#16 = DIRECTION ( 'NONE',  ( 1.000000000000000000, 1.548860246407863800E-016, 0.0000000000000000000 ) ) ;
#17 = VECTOR ( 'NONE', #201, 1000.000000000000000 ) ;
#18 = APPLICATION_CONTEXT ( 'automotive_design' ) ;
#19 = CARTESIAN_POINT ( 'NONE',  ( 5.599999999999999600, -5.849999999999999600, 16.30000000000000100 ) ) ;
#20 = PLANE ( 'NONE',  #91 ) ;
#21 = ORIENTED_EDGE ( 'NONE', *, *, #277, .F. ) ;
#22 = ORIENTED_EDGE ( 'NONE', *, *, #278, .T. ) ;
#23 = PLANE ( 'NONE',  #84 ) ;
#24 = ORIENTED_EDGE ( 'NONE', *, *, #297, .F. ) ;
#25 = CARTESIAN_POINT ( 'NONE',  ( 5.599999999999999600, -5.849999999999999600, 16.30000000000000100 ) ) ;
#26 = DIRECTION ( 'NONE',  ( 0.0000000000000000000, 0.0000000000000000000, 1.000000000000000000 ) ) ;
#27 = DIRECTION ( 'NONE',  ( -1.000000000000000000, 0.0000000000000000000, 0.0000000000000000000 ) ) ;
#28 = DIRECTION ( 'NONE',  ( 1.548860246407863800E-016, -1.000000000000000000, 0.0000000000000000000 ) ) ;
#29 = CARTESIAN_POINT ( 'NONE',  ( -5.499937834500955500, 5.849999999999997900, 16.19993783450095400 ) ) ;
#30 = EDGE_CURVE ( 'NONE', #206, #182, #280, .T. ) ;
#31 = DIRECTION ( 'NONE',  ( -0.008552009086826685800, -0.9999634309016398600, 0.0000000000000000000 ) ) ;
#32 = CARTESIAN_POINT ( 'NONE',  ( 5.599999999999999600, -5.849999999999999600, 16.30000000000000100 ) ) ;
#33 = PLANE ( 'NONE',  #124 ) ;
#34 = EDGE_CURVE ( 'NONE', #196, #323, #320, .T. ) ;
#35 = PLANE ( 'NONE',  #100 ) ;
#36 = CARTESIAN_POINT ( 'NONE',  ( -4.400043882918032200, -5.860262410904193000, 16.30000000000000100 ) ) ;
#37 = DIRECTION ( 'NONE',  ( 0.0000000000000000000, 0.9999634309016398600, 0.008552009086826840200 ) ) ;
#38 = DIRECTION ( 'NONE',  ( -1.324586690150490900E-018, 0.008552009086826841900, -0.9999634309016399700 ) ) ;
#39 = EDGE_CURVE ( 'NONE', #45, #8, #216, .T. ) ;
#40 = CARTESIAN_POINT ( 'NONE',  ( 5.599999999999999600, -5.860262410904191200, -15.10004388291803500 ) ) ;
#41 = ORIENTED_EDGE ( 'NONE', *, *, #192, .F. ) ;
#42 = PLANE ( 'NONE',  #257 ) ;
#43 = SURFACE_SIDE_STYLE ('',( #188 ) ) ;
#44 = CLOSED_SHELL ( 'NONE', ( #304, #302, #291, #295, #306, #294, #288, #301, #281, #299 ) ) ;
#45 = VERTEX_POINT ( 'NONE', #279 ) ;
#46 = CARTESIAN_POINT ( 'NONE',  ( 5.599999999999999600, 5.849999999999999600, 16.30000000000000100 ) ) ;
#47 = DIRECTION ( 'NONE',  ( 0.0000000000000000000, -0.9999634309016398600, 0.008552009086826840200 ) ) ;
#48 = PRODUCT_RELATED_PRODUCT_CATEGORY ( 'part', '', ( #12 ) ) ;
#49 = DIRECTION ( 'NONE',  ( -0.008552009086826685800, -0.9999634309016398600, 0.0000000000000000000 ) ) ;
#50 = PRODUCT_DEFINITION_FORMATION_WITH_SPECIFIED_SOURCE ( 'ANY', '', #12, .NOT_KNOWN. ) ;
#51 = DIRECTION ( 'NONE',  ( -0.9999634309016399700, 0.008552009086826687500, 0.0000000000000000000 ) ) ;
#52 = EDGE_CURVE ( 'NONE', #332, #206, #245, .T. ) ;
#53 = PRODUCT_DEFINITION ( 'UNKNOWN', '', #50, #180 ) ;
#54 = DIRECTION ( 'NONE',  ( -0.0000000000000000000, -0.0000000000000000000, -1.000000000000000000 ) ) ;
#55 = ORIENTED_EDGE ( 'NONE', *, *, #34, .F. ) ;
#56 = VERTEX_POINT ( 'NONE', #187 ) ;
#57 = AXIS2_PLACEMENT_3D ( 'NONE', #109, #66, #319 ) ;
#58 = VECTOR ( 'NONE', #9, 1000.000000000000000 ) ;
#59 = DIRECTION ( 'NONE',  ( 0.0000000000000000000, 0.9999634309016398600, 0.008552009086826840200 ) ) ;
#60 = CARTESIAN_POINT ( 'NONE',  ( -5.599999999999999600, -5.850000000000001400, 16.30000000000000100 ) ) ;
#61 = UNCERTAINTY_MEASURE_WITH_UNIT (LENGTH_MEASURE( 1.000000000000000100E-005 ), #185, 'distance_accuracy_value', 'NONE');
#62 = ORIENTED_EDGE ( 'NONE', *, *, #125, .T. ) ;
#63 = LINE ( 'NONE', #195, #208 ) ;
#64 = PLANE ( 'NONE',  #137 ) ;
#65 =( NAMED_UNIT ( * ) SI_UNIT ( $, .STERADIAN. ) SOLID_ANGLE_UNIT ( ) );
#66 = DIRECTION ( 'NONE',  ( 0.0000000000000000000, 0.0000000000000000000, 1.000000000000000000 ) ) ;
#67 = VERTEX_POINT ( 'NONE', #227 ) ;
#68 = CARTESIAN_POINT ( 'NONE',  ( 5.599999999999999600, -5.849999999999999600, -16.30000000000000100 ) ) ;
#69 =( GEOMETRIC_REPRESENTATION_CONTEXT ( 3 ) GLOBAL_UNCERTAINTY_ASSIGNED_CONTEXT ( ( #61 ) ) GLOBAL_UNIT_ASSIGNED_CONTEXT ( ( #185, #130, #65 ) ) REPRESENTATION_CONTEXT ( 'NONE', 'WORKASPACE' ) );
#70 = DIRECTION ( 'NONE',  ( 1.000000000000000000, 1.548860246407863800E-016, 0.0000000000000000000 ) ) ;
#71 = DIRECTION ( 'NONE',  ( 1.548860246407863800E-016, -1.000000000000000000, 0.0000000000000000000 ) ) ;
#72 = MECHANICAL_DESIGN_GEOMETRIC_PRESENTATION_REPRESENTATION (  '', ( #77 ), #69 ) ;
#73 = DIRECTION ( 'NONE',  ( -1.324586690150490900E-018, 0.008552009086826841900, -0.9999634309016399700 ) ) ;
#74 = PRESENTATION_LAYER_ASSIGNMENT (  '', '', ( #77 ) ) ;
#75 = DIRECTION ( 'NONE',  ( -0.0000000000000000000, -0.0000000000000000000, -1.000000000000000000 ) ) ;
#76 = CARTESIAN_POINT ( 'NONE',  ( 5.599999999999999600, -5.849999999999999600, 16.30000000000000100 ) ) ;
#77 = STYLED_ITEM ( 'NONE', ( #210 ), #1 ) ;
#78 = PLANE ( 'NONE',  #148 ) ;
#79 = VECTOR ( 'NONE', #235, 1000.000000000000000 ) ;
#80 = DIRECTION ( 'NONE',  ( 1.000000000000000000, 1.548860246407863800E-016, 0.0000000000000000000 ) ) ;
#81 = LINE ( 'NONE', #186, #79 ) ;
#82 = APPLICATION_PROTOCOL_DEFINITION ( 'draft international standard', 'automotive_design', 1998, #256 ) ;
#83 = DIRECTION ( 'NONE',  ( 1.548860246407863800E-016, -1.000000000000000000, 0.0000000000000000000 ) ) ;
#84 = AXIS2_PLACEMENT_3D ( 'NONE', #19, #4, #47 ) ;
#85 = CARTESIAN_POINT ( 'NONE',  ( 5.599999999999999600, 5.849999999999999600, 16.30000000000000100 ) ) ;
#86 = ORIENTED_EDGE ( 'NONE', *, *, #125, .F. ) ;
#87 = DIRECTION ( 'NONE',  ( -1.000000000000000000, -1.548860246407863600E-016, 0.0000000000000000000 ) ) ;
#88 =( GEOMETRIC_REPRESENTATION_CONTEXT ( 3 ) GLOBAL_UNCERTAINTY_ASSIGNED_CONTEXT ( ( #10 ) ) GLOBAL_UNIT_ASSIGNED_CONTEXT ( ( #314, #205, #102 ) ) REPRESENTATION_CONTEXT ( 'NONE', 'WORKASPACE' ) );
#89 = FACE_OUTER_BOUND ( 'NONE', #161, .T. ) ;
#90 = PLANE ( 'NONE',  #160 ) ;
#91 = AXIS2_PLACEMENT_3D ( 'NONE', #25, #28, #16 ) ;
#92 = LINE ( 'NONE', #46, #200 ) ;
#93 = COLOUR_RGB ( '',0.7921568627450980000, 0.8196078431372548800, 0.9333333333333333500 ) ;
#94 = CARTESIAN_POINT ( 'NONE',  ( 5.599999999999999600, 4.649999999999999500, 16.30000000000000100 ) ) ;
#95 = DIRECTION ( 'NONE',  ( 0.0000000000000000000, -0.9999634309016398600, 0.008552009086826840200 ) ) ;
#96 = DIRECTION ( 'NONE',  ( -1.324586690150490900E-018, 0.008552009086826841900, 0.9999634309016399700 ) ) ;
#97 = PLANE ( 'NONE',  #142 ) ;
#98 = LINE ( 'NONE', #165, #234 ) ;
#99 = CARTESIAN_POINT ( 'NONE',  ( 5.599999999999999600, -5.849999999999999600, 16.30000000000000100 ) ) ;
#100 = AXIS2_PLACEMENT_3D ( 'NONE', #32, #27, #26 ) ;
#101 = CARTESIAN_POINT ( 'NONE',  ( 5.599999999999999600, -5.860262410904191200, 15.10004388291803500 ) ) ;
#102 =( NAMED_UNIT ( * ) SI_UNIT ( $, .STERADIAN. ) SOLID_ANGLE_UNIT ( ) );
#103 = DIRECTION ( 'NONE',  ( -0.0000000000000000000, 0.9999634309016398600, -0.008552009086826840200 ) ) ;
#104 = PLANE ( 'NONE',  #286 ) ;
#105 = CARTESIAN_POINT ( 'NONE',  ( 5.599999999999999600, -5.849999999999999600, 16.30000000000000100 ) ) ;
#106 = COLOUR_RGB ( '',0.7921568627450980000, 0.8196078431372548800, 0.9333333333333333500 ) ;
#107 = EDGE_CURVE ( 'NONE', #166, #323, #317, .T. ) ;
#108 = ORIENTED_EDGE ( 'NONE', *, *, #284, .F. ) ;
#109 = CARTESIAN_POINT ( 'NONE',  ( 0.0000000000000000000, 0.0000000000000000000, 0.0000000000000000000 ) ) ;
#110 = ORIENTED_EDGE ( 'NONE', *, *, #30, .T. ) ;
#111 = VECTOR ( 'NONE', #150, 1000.000000000000100 ) ;
#112 = DIRECTION ( 'NONE',  ( 0.0000000000000000000, 0.9999634309016398600, 0.008552009086826840200 ) ) ;
#113 = EDGE_CURVE ( 'NONE', #282, #206, #81, .T. ) ;
#114 = VECTOR ( 'NONE', #103, 1000.000000000000100 ) ;
#115 = FACE_OUTER_BOUND ( 'NONE', #119, .T. ) ;
#116 = CARTESIAN_POINT ( 'NONE',  ( 5.599999999999999600, 4.649999999999999500, -15.01015673618313800 ) ) ;
#117 = DIRECTION ( 'NONE',  ( 0.0000000000000000000, 0.0000000000000000000, -1.000000000000000000 ) ) ;
#118 = CARTESIAN_POINT ( 'NONE',  ( -4.399956115477150000, -5.850000000000001400, 15.09995611547715400 ) ) ;
#119 = EDGE_LOOP ( 'NONE', ( #261, #5, #13, #24, #176, #276, #310, #175 ) ) ;
#120 = ORIENTED_EDGE ( 'NONE', *, *, #213, .F. ) ;
#121 = CARTESIAN_POINT ( 'NONE',  ( 5.599999999999999600, -5.860262410904191200, -15.10004388291803500 ) ) ;
#122 =( NAMED_UNIT ( * ) SI_UNIT ( $, .STERADIAN. ) SOLID_ANGLE_UNIT ( ) );
#123 =( NAMED_UNIT ( * ) PLANE_ANGLE_UNIT ( ) SI_UNIT ( $, .RADIAN. ) );
#124 = AXIS2_PLACEMENT_3D ( 'NONE', #36, #11, #31 ) ;
#125 = EDGE_CURVE ( 'NONE', #8, #67, #315, .T. ) ;
#126 =( LENGTH_UNIT ( ) NAMED_UNIT ( * ) SI_UNIT ( .MILLI., .METRE. ) );
#127 = SURFACE_STYLE_USAGE ( .BOTH. , #129 ) ;
#128 = ORIENTED_EDGE ( 'NONE', *, *, #289, .F. ) ;
#129 = SURFACE_SIDE_STYLE ('',( #309 ) ) ;
#130 =( NAMED_UNIT ( * ) PLANE_ANGLE_UNIT ( ) SI_UNIT ( $, .RADIAN. ) );
#131 = FILL_AREA_STYLE ('',( #132 ) ) ;
#132 = FILL_AREA_STYLE_COLOUR ( '', #106 ) ;
#133 = EDGE_CURVE ( 'NONE', #166, #8, #331, .T. ) ;
#134 = ORIENTED_EDGE ( 'NONE', *, *, #321, .F. ) ;
#135 = VERTEX_POINT ( 'NONE', #170 ) ;
#136 = CARTESIAN_POINT ( 'NONE',  ( 5.599999999999999600, 4.649999999999999500, 16.30000000000000100 ) ) ;
#137 = AXIS2_PLACEMENT_3D ( 'NONE', #68, #73, #59 ) ;
#138 = DIRECTION ( 'NONE',  ( -1.000000000000000000, -1.548860246407863800E-016, 1.926070806006015600E-034 ) ) ;
#139 = DIRECTION ( 'NONE',  ( 0.0000000000000000000, 0.9999634309016398600, 0.008552009086826840200 ) ) ;
#140 = CARTESIAN_POINT ( 'NONE',  ( 5.599999999999997900, 4.650000000000000400, 15.01015673618313800 ) ) ;
#141 = CARTESIAN_POINT ( 'NONE',  ( 5.599999999999999600, 5.849999999999999600, 16.19993783450095400 ) ) ;
#142 = AXIS2_PLACEMENT_3D ( 'NONE', #60, #51, #49 ) ;
#143 = DIRECTION ( 'NONE',  ( 0.0000000000000000000, 0.0000000000000000000, -1.000000000000000000 ) ) ;
#144 = CARTESIAN_POINT ( 'NONE',  ( 5.599999999999999600, -5.849999999999999600, -16.30000000000000100 ) ) ;
#145 = EDGE_CURVE ( 'NONE', #260, #182, #324, .T. ) ;
#146 = DIRECTION ( 'NONE',  ( 0.008551696370436727400, 0.9999268658148834400, -0.008551696370436883500 ) ) ;
#147 = CARTESIAN_POINT ( 'NONE',  ( -4.399956115477150000, -5.850000000000001400, -15.09995611547715400 ) ) ;
#148 = AXIS2_PLACEMENT_3D ( 'NONE', #85, #71, #70 ) ;
#149 = CARTESIAN_POINT ( 'NONE',  ( 5.599999999999999600, -5.849999999999999600, 16.30000000000000100 ) ) ;
#150 = DIRECTION ( 'NONE',  ( -0.0000000000000000000, 0.9999634309016398600, -0.008552009086826840200 ) ) ;
#151 = CARTESIAN_POINT ( 'NONE',  ( -4.310156736183136800, 4.649999999999997700, 16.30000000000000100 ) ) ;
#152 = EDGE_CURVE ( 'NONE', #135, #67, #223, .T. ) ;
#153 = CARTESIAN_POINT ( 'NONE',  ( -5.599999999999999600, -5.850000000000001400, 16.30000000000000100 ) ) ;
#154 = VECTOR ( 'NONE', #75, 1000.000000000000000 ) ;
#155 = CARTESIAN_POINT ( 'NONE',  ( 5.599999999999999600, -5.860262410904191200, 15.10004388291803500 ) ) ;
#156 = CARTESIAN_POINT ( 'NONE',  ( -4.310156736183135900, 4.649999999999997700, -15.01015673618313800 ) ) ;
#157 = LINE ( 'NONE', #140, #158 ) ;
#158 = VECTOR ( 'NONE', #138, 1000.000000000000000 ) ;
#159 = CARTESIAN_POINT ( 'NONE',  ( 5.599999999999997900, 5.849999999999999600, -16.19993783450095400 ) ) ;
#160 = AXIS2_PLACEMENT_3D ( 'NONE', #94, #83, #80 ) ;
#161 = EDGE_LOOP ( 'NONE', ( #328, #134, #55, #233 ) ) ;
#162 = ORIENTED_EDGE ( 'NONE', *, *, #145, .F. ) ;
#163 = VECTOR ( 'NONE', #164, 1000.000000000000000 ) ;
#164 = DIRECTION ( 'NONE',  ( -1.000000000000000000, -1.548860246407863800E-016, -1.926070806006015600E-034 ) ) ;
#165 = CARTESIAN_POINT ( 'NONE',  ( -4.399312564600687200, -5.774751326167332400, 15.09931256460068900 ) ) ;
#166 = VERTEX_POINT ( 'NONE', #153 ) ;
#167 = ORIENTED_EDGE ( 'NONE', *, *, #183, .F. ) ;
#168 = DIRECTION ( 'NONE',  ( -0.0000000000000000000, -0.0000000000000000000, -1.000000000000000000 ) ) ;
#169 = FILL_AREA_STYLE ('',( #290 ) ) ;
#170 = CARTESIAN_POINT ( 'NONE',  ( 5.599999999999999600, 5.849999999999999600, -16.19993783450095700 ) ) ;
#171 = DIRECTION ( 'NONE',  ( -0.0000000000000000000, -0.0000000000000000000, -1.000000000000000000 ) ) ;
#172 = LINE ( 'NONE', #149, #214 ) ;
#173 = DIRECTION ( 'NONE',  ( -1.000000000000000000, -1.548860246407863800E-016, -1.926070806006015600E-034 ) ) ;
#174 = DIRECTION ( 'NONE',  ( 0.008551696370436727400, 0.9999268658148834400, 0.008551696370436883500 ) ) ;
#175 = ORIENTED_EDGE ( 'NONE', *, *, #273, .T. ) ;
#176 = ORIENTED_EDGE ( 'NONE', *, *, #278, .F. ) ;
#177 = CARTESIAN_POINT ( 'NONE',  ( -5.599999999999999600, -5.850000000000001400, 16.30000000000000100 ) ) ;
#178 = CARTESIAN_POINT ( 'NONE',  ( -5.599180927078904800, -5.754228005370176600, -16.29918092707890800 ) ) ;
#179 = VECTOR ( 'NONE', #139, 1000.000000000000100 ) ;
#180 = PRODUCT_DEFINITION_CONTEXT ( 'detailed design', #18, 'design' ) ;
#181 = CARTESIAN_POINT ( 'NONE',  ( 5.599999999999997900, 4.650000000000000400, -15.01015673618313800 ) ) ;
#182 = VERTEX_POINT ( 'NONE', #156 ) ;
#183 = EDGE_CURVE ( 'NONE', #15, #311, #253, .T. ) ;
#184 = DIRECTION ( 'NONE',  ( 0.008551696370436727400, 0.9999268658148834400, -0.008551696370436883500 ) ) ;
#185 =( LENGTH_UNIT ( ) NAMED_UNIT ( * ) SI_UNIT ( .MILLI., .METRE. ) );
#186 = CARTESIAN_POINT ( 'NONE',  ( -4.399956115477150900, -5.850000000000001400, 16.30000000000000100 ) ) ;
#187 = CARTESIAN_POINT ( 'NONE',  ( -4.310156736183135900, 4.649999999999997700, 15.01015673618313800 ) ) ;
#188 = SURFACE_STYLE_FILL_AREA ( #169 ) ;
#189 = CARTESIAN_POINT ( 'NONE',  ( -5.599180927078904800, -5.754228005370176600, 16.29918092707890800 ) ) ;
#190 = EDGE_CURVE ( 'NONE', #332, #45, #172, .T. ) ;
#191 = ORIENTED_EDGE ( 'NONE', *, *, #39, .F. ) ;
#192 = EDGE_CURVE ( 'NONE', #282, #56, #98, .T. ) ;
#193 = VECTOR ( 'NONE', #87, 1000.000000000000000 ) ;
#194 = EDGE_CURVE ( 'NONE', #56, #182, #229, .T. ) ;
#195 = CARTESIAN_POINT ( 'NONE',  ( 5.599999999999999600, -5.849999999999999600, 15.09995611547715400 ) ) ;
#196 = VERTEX_POINT ( 'NONE', #141 ) ;
#197 = EDGE_LOOP ( 'NONE', ( #86, #258, #199, #292 ) ) ;
#198 = EDGE_LOOP ( 'NONE', ( #162, #265, #267, #6 ) ) ;
#199 = ORIENTED_EDGE ( 'NONE', *, *, #107, .T. ) ;
#200 = VECTOR ( 'NONE', #54, 1000.000000000000000 ) ;
#201 = DIRECTION ( 'NONE',  ( -1.000000000000000000, -1.548860246407863600E-016, 0.0000000000000000000 ) ) ;
#202 = PRODUCT_DEFINITION_SHAPE ( 'NONE', 'NONE',  #53 ) ;
#203 = ORIENTED_EDGE ( 'NONE', *, *, #113, .T. ) ;
#204 = DIRECTION ( 'NONE',  ( -1.000000000000000000, -1.548860246407863800E-016, 1.926070806006015600E-034 ) ) ;
#205 =( NAMED_UNIT ( * ) PLANE_ANGLE_UNIT ( ) SI_UNIT ( $, .RADIAN. ) );
#206 = VERTEX_POINT ( 'NONE', #147 ) ;
#207 = CARTESIAN_POINT ( 'NONE',  ( -5.599999999999999600, -5.850000000000001400, -16.30000000000000100 ) ) ;
#208 = VECTOR ( 'NONE', #308, 1000.000000000000000 ) ;
#209 = FACE_OUTER_BOUND ( 'NONE', #325, .T. ) ;
#210 = PRESENTATION_STYLE_ASSIGNMENT (( #262 ) ) ;
#211 = ORIENTED_EDGE ( 'NONE', *, *, #329, .F. ) ;
#212 = ORIENTED_EDGE ( 'NONE', *, *, #329, .T. ) ;
#213 = EDGE_CURVE ( 'NONE', #311, #56, #157, .T. ) ;
#214 = VECTOR ( 'NONE', #168, 1000.000000000000000 ) ;
#215 = ORIENTED_EDGE ( 'NONE', *, *, #39, .T. ) ;
#216 = LINE ( 'NONE', #274, #17 ) ;
#217 = CARTESIAN_POINT ( 'NONE',  ( -4.399312564600687200, -5.774751326167332400, -15.09931256460068900 ) ) ;
#218 = PRESENTATION_STYLE_ASSIGNMENT (( #127 ) ) ;
#219 = CARTESIAN_POINT ( 'NONE',  ( 5.599999999999997900, 5.849999999999999600, 16.19993783450095400 ) ) ;
#220 = UNCERTAINTY_MEASURE_WITH_UNIT (LENGTH_MEASURE( 1.000000000000000100E-005 ), #126, 'distance_accuracy_value', 'NONE');
#221 = ORIENTED_EDGE ( 'NONE', *, *, #152, .F. ) ;
#222 = EDGE_LOOP ( 'NONE', ( #215, #62, #221, #21 ) ) ;
#223 = LINE ( 'NONE', #159, #244 ) ;
#224 = VECTOR ( 'NONE', #322, 1000.000000000000000 ) ;
#225 = MANIFOLD_SOLID_BREP ( 'Wandung2', #44 ) ;
#226 = ORIENTED_EDGE ( 'NONE', *, *, #52, .F. ) ;
#227 = CARTESIAN_POINT ( 'NONE',  ( -5.499937834500955500, 5.849999999999997900, -16.19993783450095400 ) ) ;
#228 = EDGE_LOOP ( 'NONE', ( #110, #3, #41, #203 ) ) ;
#229 = LINE ( 'NONE', #151, #232 ) ;
#230 = VECTOR ( 'NONE', #204, 1000.000000000000000 ) ;
#231 = ORIENTED_EDGE ( 'NONE', *, *, #113, .F. ) ;
#232 = VECTOR ( 'NONE', #143, 1000.000000000000000 ) ;
#233 = ORIENTED_EDGE ( 'NONE', *, *, #297, .T. ) ;
#234 = VECTOR ( 'NONE', #146, 1000.000000000000000 ) ;
#235 = DIRECTION ( 'NONE',  ( 0.0000000000000000000, 0.0000000000000000000, -1.000000000000000000 ) ) ;
#236 = ORIENTED_EDGE ( 'NONE', *, *, #52, .T. ) ;
#237 = VECTOR ( 'NONE', #117, 1000.000000000000000 ) ;
#238 = PRODUCT_CONTEXT ( 'NONE', #256, 'mechanical' ) ;
#239 = VECTOR ( 'NONE', #174, 1000.000000000000000 ) ;
#240 = PRESENTATION_LAYER_ASSIGNMENT (  '', '', ( #264 ) ) ;
#241 = ORIENTED_EDGE ( 'NONE', *, *, #107, .F. ) ;
#242 = LINE ( 'NONE', #76, #154 ) ;
#243 = FACE_OUTER_BOUND ( 'NONE', #198, .T. ) ;
#244 = VECTOR ( 'NONE', #173, 1000.000000000000000 ) ;
#245 = LINE ( 'NONE', #259, #224 ) ;
#246 = MECHANICAL_DESIGN_GEOMETRIC_PRESENTATION_REPRESENTATION (  '', ( #264 ), #268 ) ;
#247 = ORIENTED_EDGE ( 'NONE', *, *, #34, .T. ) ;
#248 = LINE ( 'NONE', #136, #237 ) ;
#249 = FACE_OUTER_BOUND ( 'NONE', #228, .T. ) ;
#250 = EDGE_CURVE ( 'NONE', #332, #260, #334, .T. ) ;
#251 = FACE_OUTER_BOUND ( 'NONE', #287, .T. ) ;
#252 = LINE ( 'NONE', #2, #58 ) ;
#253 = LINE ( 'NONE', #155, #111 ) ;
#254 = VECTOR ( 'NONE', #171, 1000.000000000000000 ) ;
#255 = ORIENTED_EDGE ( 'NONE', *, *, #133, .T. ) ;
#256 = APPLICATION_CONTEXT ( 'automotive_design' ) ;
#257 = AXIS2_PLACEMENT_3D ( 'NONE', #40, #38, #37 ) ;
#258 = ORIENTED_EDGE ( 'NONE', *, *, #133, .F. ) ;
#259 = CARTESIAN_POINT ( 'NONE',  ( 5.599999999999999600, -5.849999999999999600, -15.09995611547715400 ) ) ;
#260 = VERTEX_POINT ( 'NONE', #116 ) ;
#261 = ORIENTED_EDGE ( 'NONE', *, *, #250, .F. ) ;
#262 = SURFACE_STYLE_USAGE ( .BOTH. , #43 ) ;
#263 = LINE ( 'NONE', #144, #333 ) ;
#264 = STYLED_ITEM ( 'NONE', ( #218 ), #225 ) ;
#265 = ORIENTED_EDGE ( 'NONE', *, *, #273, .F. ) ;
#266 = LINE ( 'NONE', #99, #193 ) ;
#267 = ORIENTED_EDGE ( 'NONE', *, *, #213, .T. ) ;
#268 =( GEOMETRIC_REPRESENTATION_CONTEXT ( 3 ) GLOBAL_UNCERTAINTY_ASSIGNED_CONTEXT ( ( #220 ) ) GLOBAL_UNIT_ASSIGNED_CONTEXT ( ( #126, #123, #122 ) ) REPRESENTATION_CONTEXT ( 'NONE', 'WORKASPACE' ) );
#269 = APPLICATION_PROTOCOL_DEFINITION ( 'draft international standard', 'automotive_design', 1998, #18 ) ;
#270 = CARTESIAN_POINT ( 'NONE',  ( 5.599999999999999600, -5.849999999999999600, 15.09995611547715400 ) ) ;
#271 = ORIENTED_EDGE ( 'NONE', *, *, #145, .T. ) ;
#272 = VECTOR ( 'NONE', #184, 1000.000000000000000 ) ;
#273 = EDGE_CURVE ( 'NONE', #311, #260, #248, .T. ) ;
#274 = CARTESIAN_POINT ( 'NONE',  ( 5.599999999999999600, -5.849999999999999600, -16.30000000000000100 ) ) ;
#275 = DIRECTION ( 'NONE',  ( 0.008551696370436727400, 0.9999268658148834400, 0.008551696370436883500 ) ) ;
#276 = ORIENTED_EDGE ( 'NONE', *, *, #289, .T. ) ;
#277 = EDGE_CURVE ( 'NONE', #45, #135, #263, .T. ) ;
#278 = EDGE_CURVE ( 'NONE', #326, #196, #312, .T. ) ;
#279 = CARTESIAN_POINT ( 'NONE',  ( 5.599999999999999600, -5.849999999999999600, -16.30000000000000100 ) ) ;
#280 = LINE ( 'NONE', #217, #307 ) ;
#281 = ADVANCED_FACE ( 'NONE', ( #251 ), #104, .F. ) ;
#282 = VERTEX_POINT ( 'NONE', #118 ) ;
#283 = FACE_OUTER_BOUND ( 'NONE', #313, .T. ) ;
#284 = EDGE_CURVE ( 'NONE', #326, #166, #266, .T. ) ;
#285 = FACE_OUTER_BOUND ( 'NONE', #222, .T. ) ;
#286 = AXIS2_PLACEMENT_3D ( 'NONE', #101, #96, #95 ) ;
#287 = EDGE_LOOP ( 'NONE', ( #212, #327, #120, #167 ) ) ;
#288 = ADVANCED_FACE ( 'NONE', ( #243 ), #90, .T. ) ;
#289 = EDGE_CURVE ( 'NONE', #326, #15, #242, .T. ) ;
#290 = FILL_AREA_STYLE_COLOUR ( '', #93 ) ;
#291 = ADVANCED_FACE ( 'NONE', ( #89 ), #78, .F. ) ;
#292 = ORIENTED_EDGE ( 'NONE', *, *, #321, .T. ) ;
#293 = SHAPE_DEFINITION_REPRESENTATION ( #202, #1 ) ;
#294 = ADVANCED_FACE ( 'NONE', ( #285 ), #64, .T. ) ;
#295 = ADVANCED_FACE ( 'NONE', ( #330 ), #97, .T. ) ;
#296 = ORIENTED_EDGE ( 'NONE', *, *, #284, .T. ) ;
#297 = EDGE_CURVE ( 'NONE', #196, #135, #92, .T. ) ;
#298 = EDGE_LOOP ( 'NONE', ( #108, #22, #247, #241 ) ) ;
#299 = ADVANCED_FACE ( 'NONE', ( #283 ), #42, .F. ) ;
#300 = ORIENTED_EDGE ( 'NONE', *, *, #250, .T. ) ;
#301 = ADVANCED_FACE ( 'NONE', ( #249 ), #33, .F. ) ;
#302 = ADVANCED_FACE ( 'NONE', ( #115 ), #35, .F. ) ;
#303 = ORIENTED_EDGE ( 'NONE', *, *, #190, .F. ) ;
#304 = ADVANCED_FACE ( 'NONE', ( #209 ), #20, .T. ) ;
#305 = CARTESIAN_POINT ( 'NONE',  ( 5.599999999999999600, -5.849999999999999600, -15.09995611547714700 ) ) ;
#306 = ADVANCED_FACE ( 'NONE', ( #318 ), #23, .T. ) ;
#307 = VECTOR ( 'NONE', #275, 1000.000000000000000 ) ;
#308 = DIRECTION ( 'NONE',  ( -1.000000000000000000, -1.548860246407863800E-016, 1.926070806006015600E-034 ) ) ;
#309 = SURFACE_STYLE_FILL_AREA ( #131 ) ;
#310 = ORIENTED_EDGE ( 'NONE', *, *, #183, .T. ) ;
#311 = VERTEX_POINT ( 'NONE', #14 ) ;
#312 = LINE ( 'NONE', #105, #114 ) ;
#313 = EDGE_LOOP ( 'NONE', ( #226, #300, #271, #316 ) ) ;
#314 =( LENGTH_UNIT ( ) NAMED_UNIT ( * ) SI_UNIT ( .MILLI., .METRE. ) );
#315 = LINE ( 'NONE', #178, #239 ) ;
#316 = ORIENTED_EDGE ( 'NONE', *, *, #30, .F. ) ;
#317 = LINE ( 'NONE', #189, #272 ) ;
#318 = FACE_OUTER_BOUND ( 'NONE', #298, .T. ) ;
#319 = DIRECTION ( 'NONE',  ( 1.000000000000000000, 0.0000000000000000000, 0.0000000000000000000 ) ) ;
#320 = LINE ( 'NONE', #219, #230 ) ;
#321 = EDGE_CURVE ( 'NONE', #323, #67, #252, .T. ) ;
#322 = DIRECTION ( 'NONE',  ( -1.000000000000000000, -1.548860246407863800E-016, -1.926070806006015600E-034 ) ) ;
#323 = VERTEX_POINT ( 'NONE', #29 ) ;
#324 = LINE ( 'NONE', #181, #163 ) ;
#325 = EDGE_LOOP ( 'NONE', ( #303, #236, #231, #211, #128, #296, #255, #191 ) ) ;
#326 = VERTEX_POINT ( 'NONE', #7 ) ;
#327 = ORIENTED_EDGE ( 'NONE', *, *, #192, .T. ) ;
#328 = ORIENTED_EDGE ( 'NONE', *, *, #152, .T. ) ;
#329 = EDGE_CURVE ( 'NONE', #15, #282, #63, .T. ) ;
#330 = FACE_OUTER_BOUND ( 'NONE', #197, .T. ) ;
#331 = LINE ( 'NONE', #177, #254 ) ;
#332 = VERTEX_POINT ( 'NONE', #305 ) ;
#333 = VECTOR ( 'NONE', #112, 1000.000000000000100 ) ;
#334 = LINE ( 'NONE', #121, #179 ) ;
ENDSEC;
END-ISO-10303-21;
