ISO-10303-21;
HEADER;
FILE_DESCRIPTION (( 'STEP AP214' ),
    '1' );
FILE_NAME ('6158838.STEP',
    '2016-06-29T06:35:26',
    ( '' ),
    ( '' ),
    'SwSTEP 2.0',
    'SolidWorks 2014',
    '' );
FILE_SCHEMA (( 'AUTOMOTIVE_DESIGN' ));
ENDSEC;

DATA;
#1 = LINE ( 'NONE', #315, #211 ) ;
#2 = CARTESIAN_POINT ( 'NONE',  ( 0.0000000000000000000, 8.149999999999998600, -7.000000000000000000 ) ) ;
#3 = LINE ( 'NONE', #246, #276 ) ;
#4 = CARTESIAN_POINT ( 'NONE',  ( 16.30073646638374600, -9.349999999999999600, -7.000000000000000000 ) ) ;
#5 = ORIENTED_EDGE ( 'NONE', *, *, #280, .F. ) ;
#6 =( LENGTH_UNIT ( ) NAMED_UNIT ( * ) SI_UNIT ( .MILLI., .METRE. ) );
#7 = CARTESIAN_POINT ( 'NONE',  ( -15.10052718208131100, -9.349999999999999600, 7.000000000000000000 ) ) ;
#8 = FILL_AREA_STYLE ('',( #238 ) ) ;
#9 = DIRECTION ( 'NONE',  ( 0.01867393750937520700, -0.9998256268259461100, 0.0000000000000000000 ) ) ;
#10 = EDGE_CURVE ( 'NONE', #109, #63, #327, .T. ) ;
#11 = CARTESIAN_POINT ( 'NONE',  ( -15.26983225744578800, -0.2851976241691434000, 7.000000000000000000 ) ) ;
#12 = LINE ( 'NONE', #80, #281 ) ;
#13 = DIRECTION ( 'NONE',  ( 0.0000000000000000000, -1.000000000000000000, 0.0000000000000000000 ) ) ;
#14 = DIRECTION ( 'NONE',  ( -0.9998256268259461100, -0.01867393750937520700, 0.0000000000000000000 ) ) ;
#15 = CARTESIAN_POINT ( 'NONE',  ( 0.0000000000000000000, 0.0000000000000000000, 0.0000000000000000000 ) ) ;
#16 = CARTESIAN_POINT ( 'NONE',  ( 15.42737808252433000, 8.149999999999998600, 7.000000000000000000 ) ) ;
#17 = PRESENTATION_LAYER_ASSIGNMENT (  '', '', ( #331 ) ) ;
#18 = VECTOR ( 'NONE', #218, 1000.000000000000100 ) ;
#19 = ORIENTED_EDGE ( 'NONE', *, *, #308, .T. ) ;
#20 = PLANE ( 'NONE',  #61 ) ;
#21 = CARTESIAN_POINT ( 'NONE',  ( 15.26983225744578800, -0.2851976241691434000, 7.000000000000000000 ) ) ;
#22 = FACE_OUTER_BOUND ( 'NONE', #304, .T. ) ;
#23 = AXIS2_PLACEMENT_3D ( 'NONE', #148, #147, #140 ) ;
#24 = CARTESIAN_POINT ( 'NONE',  ( 16.64999999999999900, 9.349999999999999600, 7.000000000000000000 ) ) ;
#25 = FACE_OUTER_BOUND ( 'NONE', #213, .T. ) ;
#26 = ORIENTED_EDGE ( 'NONE', *, *, #167, .F. ) ;
#27 = ORIENTED_EDGE ( 'NONE', *, *, #138, .F. ) ;
#28 = ADVANCED_FACE ( 'NONE', ( #190 ), #202, .F. ) ;
#29 = EDGE_CURVE ( 'NONE', #88, #159, #318, .T. ) ;
#30 = FACE_OUTER_BOUND ( 'NONE', #234, .T. ) ;
#31 = MECHANICAL_DESIGN_GEOMETRIC_PRESENTATION_REPRESENTATION (  '', ( #331 ), #57 ) ;
#32 = LINE ( 'NONE', #319, #127 ) ;
#33 = ORIENTED_EDGE ( 'NONE', *, *, #117, .F. ) ;
#34 = ORIENTED_EDGE ( 'NONE', *, *, #29, .F. ) ;
#35 =( NAMED_UNIT ( * ) SI_UNIT ( $, .STERADIAN. ) SOLID_ANGLE_UNIT ( ) );
#36 = SURFACE_STYLE_USAGE ( .BOTH. , #191 ) ;
#37 = SHAPE_DEFINITION_REPRESENTATION ( #183, #325 ) ;
#38 = LINE ( 'NONE', #173, #102 ) ;
#39 = CARTESIAN_POINT ( 'NONE',  ( -15.10052718208131100, -9.349999999999999600, 7.000000000000000000 ) ) ;
#40 = PRODUCT_DEFINITION_CONTEXT ( 'detailed design', #266, 'design' ) ;
#41 = CARTESIAN_POINT ( 'NONE',  ( -16.64999999999999900, 9.349999999999999600, 7.000000000000000000 ) ) ;
#42 = CARTESIAN_POINT ( 'NONE',  ( -15.42737808252433000, 8.149999999999998600, 7.000000000000000000 ) ) ;
#43 = CARTESIAN_POINT ( 'NONE',  ( 15.42737808252433300, 8.149999999999998600, 7.000000000000000000 ) ) ;
#44 = DIRECTION ( 'NONE',  ( 0.01867393750937520700, -0.9998256268259461100, -0.0000000000000000000 ) ) ;
#45 =( NAMED_UNIT ( * ) PLANE_ANGLE_UNIT ( ) SI_UNIT ( $, .RADIAN. ) );
#46 = EDGE_LOOP ( 'NONE', ( #110, #198, #154, #306 ) ) ;
#47 = CARTESIAN_POINT ( 'NONE',  ( -15.45020924780886200, 9.372408725011249300, 7.000000000000000000 ) ) ;
#48 = CARTESIAN_POINT ( 'NONE',  ( -16.64999999999999900, -9.349999999999999600, 7.000000000000000000 ) ) ;
#49 = ORIENTED_EDGE ( 'NONE', *, *, #150, .T. ) ;
#50 = DIRECTION ( 'NONE',  ( 0.0000000000000000000, -0.0000000000000000000, -1.000000000000000000 ) ) ;
#51 = CARTESIAN_POINT ( 'NONE',  ( 15.10052718208131100, -9.349999999999999600, 7.000000000000000000 ) ) ;
#52 = FACE_OUTER_BOUND ( 'NONE', #83, .T. ) ;
#53 = EDGE_CURVE ( 'NONE', #88, #109, #67, .T. ) ;
#54 = UNCERTAINTY_MEASURE_WITH_UNIT (LENGTH_MEASURE( 1.000000000000000100E-005 ), #215, 'distance_accuracy_value', 'NONE');
#55 = CARTESIAN_POINT ( 'NONE',  ( 15.10052718208131100, -9.349999999999999600, -7.000000000000000000 ) ) ;
#56 = ORIENTED_EDGE ( 'NONE', *, *, #10, .T. ) ;
#57 =( GEOMETRIC_REPRESENTATION_CONTEXT ( 3 ) GLOBAL_UNCERTAINTY_ASSIGNED_CONTEXT ( ( #307 ) ) GLOBAL_UNIT_ASSIGNED_CONTEXT ( ( #6, #187, #35 ) ) REPRESENTATION_CONTEXT ( 'NONE', 'WORKASPACE' ) );
#58 = VERTEX_POINT ( 'NONE', #16 ) ;
#59 = ADVANCED_FACE ( 'NONE', ( #52 ), #302, .F. ) ;
#60 = LINE ( 'NONE', #21, #241 ) ;
#61 = AXIS2_PLACEMENT_3D ( 'NONE', #47, #14, #9 ) ;
#62 = FACE_OUTER_BOUND ( 'NONE', #146, .T. ) ;
#63 = VERTEX_POINT ( 'NONE', #120 ) ;
#64 = CARTESIAN_POINT ( 'NONE',  ( 16.64999999999999900, 9.349999999999999600, 7.000000000000000000 ) ) ;
#65 = DIRECTION ( 'NONE',  ( 0.0000000000000000000, 0.0000000000000000000, 1.000000000000000000 ) ) ;
#66 = CARTESIAN_POINT ( 'NONE',  ( -16.64999999999999900, 9.349999999999999600, -7.000000000000000000 ) ) ;
#67 = LINE ( 'NONE', #48, #182 ) ;
#68 =( NAMED_UNIT ( * ) PLANE_ANGLE_UNIT ( ) SI_UNIT ( $, .RADIAN. ) );
#69 = CARTESIAN_POINT ( 'NONE',  ( 15.45020924780886200, 9.372408725011249300, 7.000000000000000000 ) ) ;
#70 = EDGE_CURVE ( 'NONE', #88, #58, #60, .T. ) ;
#71 = DIRECTION ( 'NONE',  ( -0.9998256268259461100, -0.01867393750937520700, 0.0000000000000000000 ) ) ;
#72 = VECTOR ( 'NONE', #136, 1000.000000000000000 ) ;
#73 = ORIENTED_EDGE ( 'NONE', *, *, #184, .T. ) ;
#74 = CARTESIAN_POINT ( 'NONE',  ( -15.26983225744578800, -0.2851976241691434000, -7.000000000000000000 ) ) ;
#75 = ORIENTED_EDGE ( 'NONE', *, *, #53, .T. ) ;
#76 = DIRECTION ( 'NONE',  ( 1.000000000000000000, 0.0000000000000000000, 0.0000000000000000000 ) ) ;
#77 = EDGE_LOOP ( 'NONE', ( #163, #26, #311, #104 ) ) ;
#78 = LINE ( 'NONE', #291, #207 ) ;
#79 = STYLED_ITEM ( 'NONE', ( #251 ), #227 ) ;
#80 = CARTESIAN_POINT ( 'NONE',  ( -16.64999999999999900, -9.349999999999999600, 7.000000000000000000 ) ) ;
#81 = VERTEX_POINT ( 'NONE', #275 ) ;
#82 = ADVANCED_FACE ( 'NONE', ( #309 ), #225, .F. ) ;
#83 = EDGE_LOOP ( 'NONE', ( #209, #34, #128, #19 ) ) ;
#84 = EDGE_CURVE ( 'NONE', #109, #174, #107, .T. ) ;
#85 = FACE_OUTER_BOUND ( 'NONE', #172, .T. ) ;
#86 = ORIENTED_EDGE ( 'NONE', *, *, #70, .F. ) ;
#87 = ORIENTED_EDGE ( 'NONE', *, *, #101, .T. ) ;
#88 = VERTEX_POINT ( 'NONE', #272 ) ;
#89 = DIRECTION ( 'NONE',  ( 0.9998256268259461100, -0.01867393750937520700, 0.0000000000000000000 ) ) ;
#90 = PRODUCT_CONTEXT ( 'NONE', #290, 'mechanical' ) ;
#91 = CARTESIAN_POINT ( 'NONE',  ( 15.26983225744578800, -0.2851976241691434000, -7.000000000000000000 ) ) ;
#92 = DIRECTION ( 'NONE',  ( 0.0000000000000000000, -0.0000000000000000000, -1.000000000000000000 ) ) ;
#93 = VECTOR ( 'NONE', #44, 1000.000000000000100 ) ;
#94 = CARTESIAN_POINT ( 'NONE',  ( -16.46962300963692600, -0.3076063491803936500, 7.000000000000000000 ) ) ;
#95 = AXIS2_PLACEMENT_3D ( 'NONE', #64, #89, #264 ) ;
#96 = CARTESIAN_POINT ( 'NONE',  ( -16.30073646638374300, -9.349999999999999600, 7.000000000000000000 ) ) ;
#97 = DIRECTION ( 'NONE',  ( -1.000000000000000000, 0.0000000000000000000, -0.0000000000000000000 ) ) ;
#98 = LINE ( 'NONE', #141, #229 ) ;
#99 = EDGE_LOOP ( 'NONE', ( #86, #75, #56, #333, #332, #252, #5, #186 ) ) ;
#100 = ORIENTED_EDGE ( 'NONE', *, *, #138, .T. ) ;
#101 = EDGE_CURVE ( 'NONE', #262, #208, #303, .T. ) ;
#102 = VECTOR ( 'NONE', #171, 1000.000000000000000 ) ;
#103 = LINE ( 'NONE', #94, #18 ) ;
#104 = ORIENTED_EDGE ( 'NONE', *, *, #117, .T. ) ;
#105 = AXIS2_PLACEMENT_3D ( 'NONE', #15, #65, #237 ) ;
#106 = ORIENTED_EDGE ( 'NONE', *, *, #176, .T. ) ;
#107 = LINE ( 'NONE', #199, #178 ) ;
#108 = PRESENTATION_LAYER_ASSIGNMENT (  '', '', ( #79 ) ) ;
#109 = VERTEX_POINT ( 'NONE', #175 ) ;
#110 = ORIENTED_EDGE ( 'NONE', *, *, #210, .T. ) ;
#111 = DIRECTION ( 'NONE',  ( 0.01867393750937520700, 0.9998256268259461100, -0.0000000000000000000 ) ) ;
#112 = APPLICATION_PROTOCOL_DEFINITION ( 'draft international standard', 'automotive_design', 1998, #266 ) ;
#113 = DIRECTION ( 'NONE',  ( -1.000000000000000000, -0.0000000000000000000, -0.0000000000000000000 ) ) ;
#114 = VECTOR ( 'NONE', #204, 1000.000000000000000 ) ;
#115 = CARTESIAN_POINT ( 'NONE',  ( 16.64999999999999900, 9.349999999999999600, -7.000000000000000000 ) ) ;
#116 = DIRECTION ( 'NONE',  ( -0.0000000000000000000, -0.0000000000000000000, -1.000000000000000000 ) ) ;
#117 = EDGE_CURVE ( 'NONE', #81, #310, #38, .T. ) ;
#118 = CARTESIAN_POINT ( 'NONE',  ( -16.30073646638374300, -9.349999999999999600, 7.000000000000000000 ) ) ;
#119 = CARTESIAN_POINT ( 'NONE',  ( -15.10052718208131100, -9.349999999999999600, -7.000000000000000000 ) ) ;
#120 = CARTESIAN_POINT ( 'NONE',  ( 16.64999999999999900, 9.349999999999999600, 7.000000000000000000 ) ) ;
#121 = CARTESIAN_POINT ( 'NONE',  ( -15.42737808252433000, 8.149999999999998600, -7.000000000000000000 ) ) ;
#122 = ORIENTED_EDGE ( 'NONE', *, *, #84, .F. ) ;
#123 = PRODUCT_DEFINITION ( 'UNKNOWN', '', #134, #40 ) ;
#124 = VERTEX_POINT ( 'NONE', #166 ) ;
#125 = VECTOR ( 'NONE', #50, 1000.000000000000000 ) ;
#126 = MECHANICAL_DESIGN_GEOMETRIC_PRESENTATION_REPRESENTATION (  '', ( #79 ), #143 ) ;
#127 = VECTOR ( 'NONE', #268, 1000.000000000000000 ) ;
#128 = ORIENTED_EDGE ( 'NONE', *, *, #70, .T. ) ;
#129 = ORIENTED_EDGE ( 'NONE', *, *, #184, .F. ) ;
#130 = ADVANCED_FACE ( 'NONE', ( #30 ), #179, .F. ) ;
#131 = ORIENTED_EDGE ( 'NONE', *, *, #280, .T. ) ;
#132 = EDGE_CURVE ( 'NONE', #313, #81, #165, .T. ) ;
#133 = VECTOR ( 'NONE', #293, 1000.000000000000100 ) ;
#134 = PRODUCT_DEFINITION_FORMATION_WITH_SPECIFIED_SOURCE ( 'ANY', '', #257, .NOT_KNOWN. ) ;
#135 = FILL_AREA_STYLE ('',( #144 ) ) ;
#136 = DIRECTION ( 'NONE',  ( -0.0000000000000000000, -0.0000000000000000000, -1.000000000000000000 ) ) ;
#137 = VERTEX_POINT ( 'NONE', #169 ) ;
#138 = EDGE_CURVE ( 'NONE', #324, #310, #296, .T. ) ;
#139 = DIRECTION ( 'NONE',  ( -1.000000000000000000, 0.0000000000000000000, -0.0000000000000000000 ) ) ;
#140 = DIRECTION ( 'NONE',  ( 0.0000000000000000000, -0.0000000000000000000, 1.000000000000000000 ) ) ;
#141 = CARTESIAN_POINT ( 'NONE',  ( 0.0000000000000000000, 8.149999999999998600, 7.000000000000000000 ) ) ;
#142 = VECTOR ( 'NONE', #212, 1000.000000000000000 ) ;
#143 =( GEOMETRIC_REPRESENTATION_CONTEXT ( 3 ) GLOBAL_UNCERTAINTY_ASSIGNED_CONTEXT ( ( #54 ) ) GLOBAL_UNIT_ASSIGNED_CONTEXT ( ( #215, #68, #240 ) ) REPRESENTATION_CONTEXT ( 'NONE', 'WORKASPACE' ) );
#144 = FILL_AREA_STYLE_COLOUR ( '', #326 ) ;
#145 = CLOSED_SHELL ( 'NONE', ( #82, #28, #232, #181, #254, #284, #130, #59, #305, #155 ) ) ;
#146 = EDGE_LOOP ( 'NONE', ( #260, #223, #106, #100, #33, #129, #334, #312 ) ) ;
#147 = DIRECTION ( 'NONE',  ( 0.0000000000000000000, 1.000000000000000000, 0.0000000000000000000 ) ) ;
#148 = CARTESIAN_POINT ( 'NONE',  ( -16.64999999999999900, -9.349999999999999600, 7.000000000000000000 ) ) ;
#149 = DIRECTION ( 'NONE',  ( 0.01867393750937520700, 0.9998256268259461100, -0.0000000000000000000 ) ) ;
#150 = EDGE_CURVE ( 'NONE', #137, #324, #249, .T. ) ;
#151 = LINE ( 'NONE', #24, #226 ) ;
#152 = PRODUCT_RELATED_PRODUCT_CATEGORY ( 'part', '', ( #257 ) ) ;
#153 = FACE_OUTER_BOUND ( 'NONE', #289, .T. ) ;
#154 = ORIENTED_EDGE ( 'NONE', *, *, #328, .F. ) ;
#155 = ADVANCED_FACE ( 'NONE', ( #22 ), #20, .F. ) ;
#156 = EDGE_CURVE ( 'NONE', #63, #285, #151, .T. ) ;
#157 = VECTOR ( 'NONE', #116, 1000.000000000000000 ) ;
#158 = LINE ( 'NONE', #11, #288 ) ;
#159 = VERTEX_POINT ( 'NONE', #55 ) ;
#160 = DIRECTION ( 'NONE',  ( 1.000000000000000000, 0.0000000000000000000, 0.0000000000000000000 ) ) ;
#161 = SURFACE_STYLE_USAGE ( .BOTH. , #314 ) ;
#162 = DIRECTION ( 'NONE',  ( 0.01867393750937520700, -0.9998256268259461100, -0.0000000000000000000 ) ) ;
#163 = ORIENTED_EDGE ( 'NONE', *, *, #206, .F. ) ;
#164 = PLANE ( 'NONE',  #228 ) ;
#165 = LINE ( 'NONE', #118, #114 ) ;
#166 = CARTESIAN_POINT ( 'NONE',  ( 15.42737808252433000, 8.149999999999998600, -7.000000000000000000 ) ) ;
#167 = EDGE_CURVE ( 'NONE', #313, #253, #12, .T. ) ;
#168 = DIRECTION ( 'NONE',  ( 0.01867393750937520700, -0.9998256268259461100, -0.0000000000000000000 ) ) ;
#169 = CARTESIAN_POINT ( 'NONE',  ( -15.42737808252433000, 8.149999999999998600, 7.000000000000000000 ) ) ;
#170 = PLANE ( 'NONE',  #299 ) ;
#171 = DIRECTION ( 'NONE',  ( 1.000000000000000000, 0.0000000000000000000, 0.0000000000000000000 ) ) ;
#172 = EDGE_LOOP ( 'NONE', ( #265, #231, #185, #277 ) ) ;
#173 = CARTESIAN_POINT ( 'NONE',  ( -16.64999999999999900, -9.349999999999999600, -7.000000000000000000 ) ) ;
#174 = VERTEX_POINT ( 'NONE', #4 ) ;
#175 = CARTESIAN_POINT ( 'NONE',  ( 16.30073646638374600, -9.349999999999999600, 7.000000000000000000 ) ) ;
#176 = EDGE_CURVE ( 'NONE', #124, #324, #217, .T. ) ;
#177 = DIRECTION ( 'NONE',  ( -0.0000000000000000000, -0.0000000000000000000, -1.000000000000000000 ) ) ;
#178 = VECTOR ( 'NONE', #195, 1000.000000000000000 ) ;
#179 = PLANE ( 'NONE',  #23 ) ;
#180 = ORIENTED_EDGE ( 'NONE', *, *, #150, .F. ) ;
#181 = ADVANCED_FACE ( 'NONE', ( #85 ), #235, .T. ) ;
#182 = VECTOR ( 'NONE', #76, 1000.000000000000000 ) ;
#183 = PRODUCT_DEFINITION_SHAPE ( 'NONE', 'NONE',  #123 ) ;
#184 = EDGE_CURVE ( 'NONE', #208, #81, #1, .T. ) ;
#185 = ORIENTED_EDGE ( 'NONE', *, *, #10, .F. ) ;
#186 = ORIENTED_EDGE ( 'NONE', *, *, #258, .F. ) ;
#187 =( NAMED_UNIT ( * ) PLANE_ANGLE_UNIT ( ) SI_UNIT ( $, .RADIAN. ) );
#188 = PRESENTATION_STYLE_ASSIGNMENT (( #161 ) ) ;
#189 = EDGE_CURVE ( 'NONE', #174, #285, #78, .T. ) ;
#190 = FACE_OUTER_BOUND ( 'NONE', #99, .T. ) ;
#191 = SURFACE_SIDE_STYLE ('',( #286 ) ) ;
#192 = CARTESIAN_POINT ( 'NONE',  ( -16.64999999999999900, 9.349999999999999600, 7.000000000000000000 ) ) ;
#193 = CARTESIAN_POINT ( 'NONE',  ( -16.64999999999999900, 9.349999999999999600, 7.000000000000000000 ) ) ;
#194 = PLANE ( 'NONE',  #261 ) ;
#195 = DIRECTION ( 'NONE',  ( 0.0000000000000000000, -0.0000000000000000000, -1.000000000000000000 ) ) ;
#196 = DIRECTION ( 'NONE',  ( 0.0000000000000000000, -0.0000000000000000000, -1.000000000000000000 ) ) ;
#197 = VECTOR ( 'NONE', #113, 1000.000000000000000 ) ;
#198 = ORIENTED_EDGE ( 'NONE', *, *, #101, .F. ) ;
#199 = CARTESIAN_POINT ( 'NONE',  ( 16.30073646638374300, -9.349999999999999600, 7.000000000000000000 ) ) ;
#200 = AXIS2_PLACEMENT_3D ( 'NONE', #317, #295, #139 ) ;
#201 =( LENGTH_UNIT ( ) NAMED_UNIT ( * ) SI_UNIT ( .MILLI., .METRE. ) );
#202 = PLANE ( 'NONE',  #250 ) ;
#203 = ORIENTED_EDGE ( 'NONE', *, *, #29, .T. ) ;
#204 = DIRECTION ( 'NONE',  ( -0.0000000000000000000, -0.0000000000000000000, -1.000000000000000000 ) ) ;
#205 = DIRECTION ( 'NONE',  ( 0.0000000000000000000, -0.0000000000000000000, 1.000000000000000000 ) ) ;
#206 = EDGE_CURVE ( 'NONE', #253, #310, #271, .T. ) ;
#207 = VECTOR ( 'NONE', #111, 1000.000000000000100 ) ;
#208 = VERTEX_POINT ( 'NONE', #66 ) ;
#209 = ORIENTED_EDGE ( 'NONE', *, *, #224, .F. ) ;
#210 = EDGE_CURVE ( 'NONE', #285, #208, #259, .T. ) ;
#211 = VECTOR ( 'NONE', #162, 1000.000000000000100 ) ;
#212 = DIRECTION ( 'NONE',  ( -1.000000000000000000, 0.0000000000000000000, 0.0000000000000000000 ) ) ;
#213 = EDGE_LOOP ( 'NONE', ( #236, #330, #230, #49 ) ) ;
#214 = CARTESIAN_POINT ( 'NONE',  ( -16.64999999999999900, 9.349999999999999600, -7.000000000000000000 ) ) ;
#215 =( LENGTH_UNIT ( ) NAMED_UNIT ( * ) SI_UNIT ( .MILLI., .METRE. ) );
#216 = CARTESIAN_POINT ( 'NONE',  ( 0.0000000000000000000, 0.0000000000000000000, 7.000000000000000000 ) ) ;
#217 = LINE ( 'NONE', #2, #142 ) ;
#218 = DIRECTION ( 'NONE',  ( 0.01867393750937520700, -0.9998256268259461100, -0.0000000000000000000 ) ) ;
#219 = DIRECTION ( 'NONE',  ( 0.0000000000000000000, 1.000000000000000000, 0.0000000000000000000 ) ) ;
#220 =( NAMED_UNIT ( * ) SI_UNIT ( $, .STERADIAN. ) SOLID_ANGLE_UNIT ( ) );
#221 = CARTESIAN_POINT ( 'NONE',  ( 16.46962300963692600, -0.3076063491803936500, 7.000000000000000000 ) ) ;
#222 = LINE ( 'NONE', #43, #283 ) ;
#223 = ORIENTED_EDGE ( 'NONE', *, *, #224, .T. ) ;
#224 = EDGE_CURVE ( 'NONE', #159, #124, #329, .T. ) ;
#225 = PLANE ( 'NONE',  #321 ) ;
#226 = VECTOR ( 'NONE', #316, 1000.000000000000000 ) ;
#227 = MANIFOLD_SOLID_BREP ( 'Shell3', #145 ) ;
#228 = AXIS2_PLACEMENT_3D ( 'NONE', #192, #242, #92 ) ;
#229 = VECTOR ( 'NONE', #320, 1000.000000000000000 ) ;
#230 = ORIENTED_EDGE ( 'NONE', *, *, #258, .T. ) ;
#231 = ORIENTED_EDGE ( 'NONE', *, *, #156, .F. ) ;
#232 = ADVANCED_FACE ( 'NONE', ( #62 ), #267, .T. ) ;
#233 = VECTOR ( 'NONE', #177, 1000.000000000000000 ) ;
#234 = EDGE_LOOP ( 'NONE', ( #247, #203, #248, #122 ) ) ;
#235 = PLANE ( 'NONE',  #95 ) ;
#236 = ORIENTED_EDGE ( 'NONE', *, *, #176, .F. ) ;
#237 = DIRECTION ( 'NONE',  ( 1.000000000000000000, 0.0000000000000000000, 0.0000000000000000000 ) ) ;
#238 = FILL_AREA_STYLE_COLOUR ( '', #323 ) ;
#239 = EDGE_CURVE ( 'NONE', #159, #174, #32, .T. ) ;
#240 =( NAMED_UNIT ( * ) SI_UNIT ( $, .STERADIAN. ) SOLID_ANGLE_UNIT ( ) );
#241 = VECTOR ( 'NONE', #243, 1000.000000000000100 ) ;
#242 = DIRECTION ( 'NONE',  ( 0.0000000000000000000, -1.000000000000000000, 0.0000000000000000000 ) ) ;
#243 = DIRECTION ( 'NONE',  ( 0.01867393750937520700, 0.9998256268259461100, -0.0000000000000000000 ) ) ;
#244 = DIRECTION ( 'NONE',  ( 0.01867393750937520700, -0.9998256268259461100, 0.0000000000000000000 ) ) ;
#245 = CARTESIAN_POINT ( 'NONE',  ( -16.64999999999999900, -9.349999999999999600, 7.000000000000000000 ) ) ;
#246 = CARTESIAN_POINT ( 'NONE',  ( -16.64999999999999900, 9.349999999999999600, 7.000000000000000000 ) ) ;
#247 = ORIENTED_EDGE ( 'NONE', *, *, #53, .F. ) ;
#248 = ORIENTED_EDGE ( 'NONE', *, *, #239, .T. ) ;
#249 = LINE ( 'NONE', #42, #157 ) ;
#250 = AXIS2_PLACEMENT_3D ( 'NONE', #216, #269, #97 ) ;
#251 = PRESENTATION_STYLE_ASSIGNMENT (( #36 ) ) ;
#252 = ORIENTED_EDGE ( 'NONE', *, *, #167, .T. ) ;
#253 = VERTEX_POINT ( 'NONE', #39 ) ;
#254 = ADVANCED_FACE ( 'NONE', ( #300 ), #164, .F. ) ;
#255 = SURFACE_STYLE_FILL_AREA ( #135 ) ;
#256 = VECTOR ( 'NONE', #149, 1000.000000000000100 ) ;
#257 = PRODUCT ( '6158838', '6158838', '', ( #90 ) ) ;
#258 = EDGE_CURVE ( 'NONE', #58, #137, #98, .T. ) ;
#259 = LINE ( 'NONE', #214, #197 ) ;
#260 = ORIENTED_EDGE ( 'NONE', *, *, #239, .F. ) ;
#261 = AXIS2_PLACEMENT_3D ( 'NONE', #41, #71, #244 ) ;
#262 = VERTEX_POINT ( 'NONE', #297 ) ;
#263 = APPLICATION_PROTOCOL_DEFINITION ( 'draft international standard', 'automotive_design', 1998, #290 ) ;
#264 = DIRECTION ( 'NONE',  ( 0.01867393750937520700, 0.9998256268259461100, 0.0000000000000000000 ) ) ;
#265 = ORIENTED_EDGE ( 'NONE', *, *, #189, .T. ) ;
#266 = APPLICATION_CONTEXT ( 'automotive_design' ) ;
#267 = PLANE ( 'NONE',  #200 ) ;
#268 = DIRECTION ( 'NONE',  ( 1.000000000000000000, 0.0000000000000000000, 0.0000000000000000000 ) ) ;
#269 = DIRECTION ( 'NONE',  ( 0.0000000000000000000, 0.0000000000000000000, -1.000000000000000000 ) ) ;
#270 = CARTESIAN_POINT ( 'NONE',  ( -16.64999999999999900, 8.149999999999998600, 7.000000000000000000 ) ) ;
#271 = LINE ( 'NONE', #7, #72 ) ;
#272 = CARTESIAN_POINT ( 'NONE',  ( 15.10052718208131100, -9.349999999999999600, 7.000000000000000000 ) ) ;
#273 = DIRECTION ( 'NONE',  ( -1.000000000000000000, -0.0000000000000000000, -0.0000000000000000000 ) ) ;
#274 = ORIENTED_EDGE ( 'NONE', *, *, #294, .F. ) ;
#275 = CARTESIAN_POINT ( 'NONE',  ( -16.30073646638374300, -9.349999999999999600, -7.000000000000000000 ) ) ;
#276 = VECTOR ( 'NONE', #273, 1000.000000000000000 ) ;
#277 = ORIENTED_EDGE ( 'NONE', *, *, #84, .T. ) ;
#278 = DIRECTION ( 'NONE',  ( 0.01867393750937520700, 0.9998256268259461100, 0.0000000000000000000 ) ) ;
#279 = UNCERTAINTY_MEASURE_WITH_UNIT (LENGTH_MEASURE( 1.000000000000000100E-005 ), #201, 'distance_accuracy_value', 'NONE');
#280 = EDGE_CURVE ( 'NONE', #137, #253, #158, .T. ) ;
#281 = VECTOR ( 'NONE', #160, 1000.000000000000000 ) ;
#282 =( GEOMETRIC_REPRESENTATION_CONTEXT ( 3 ) GLOBAL_UNCERTAINTY_ASSIGNED_CONTEXT ( ( #279 ) ) GLOBAL_UNIT_ASSIGNED_CONTEXT ( ( #201, #45, #220 ) ) REPRESENTATION_CONTEXT ( 'NONE', 'WORKASPACE' ) );
#283 = VECTOR ( 'NONE', #322, 1000.000000000000000 ) ;
#284 = ADVANCED_FACE ( 'NONE', ( #153 ), #194, .T. ) ;
#285 = VERTEX_POINT ( 'NONE', #115 ) ;
#286 = SURFACE_STYLE_FILL_AREA ( #8 ) ;
#287 = AXIS2_PLACEMENT_3D ( 'NONE', #69, #298, #278 ) ;
#288 = VECTOR ( 'NONE', #168, 1000.000000000000100 ) ;
#289 = EDGE_LOOP ( 'NONE', ( #73, #301, #274, #87 ) ) ;
#290 = APPLICATION_CONTEXT ( 'automotive_design' ) ;
#291 = CARTESIAN_POINT ( 'NONE',  ( 16.46962300963692600, -0.3076063491803936500, -7.000000000000000000 ) ) ;
#292 = ORIENTED_EDGE ( 'NONE', *, *, #206, .T. ) ;
#293 = DIRECTION ( 'NONE',  ( 0.01867393750937520700, 0.9998256268259461100, -0.0000000000000000000 ) ) ;
#294 = EDGE_CURVE ( 'NONE', #262, #313, #103, .T. ) ;
#295 = DIRECTION ( 'NONE',  ( 0.0000000000000000000, 0.0000000000000000000, -1.000000000000000000 ) ) ;
#296 = LINE ( 'NONE', #74, #93 ) ;
#297 = CARTESIAN_POINT ( 'NONE',  ( -16.64999999999999900, 9.349999999999999600, 7.000000000000000000 ) ) ;
#298 = DIRECTION ( 'NONE',  ( 0.9998256268259461100, -0.01867393750937520700, 0.0000000000000000000 ) ) ;
#299 = AXIS2_PLACEMENT_3D ( 'NONE', #270, #13, #196 ) ;
#300 = FACE_OUTER_BOUND ( 'NONE', #46, .T. ) ;
#301 = ORIENTED_EDGE ( 'NONE', *, *, #132, .F. ) ;
#302 = PLANE ( 'NONE',  #287 ) ;
#303 = LINE ( 'NONE', #193, #233 ) ;
#304 = EDGE_LOOP ( 'NONE', ( #27, #180, #131, #292 ) ) ;
#305 = ADVANCED_FACE ( 'NONE', ( #25 ), #170, .T. ) ;
#306 = ORIENTED_EDGE ( 'NONE', *, *, #156, .T. ) ;
#307 = UNCERTAINTY_MEASURE_WITH_UNIT (LENGTH_MEASURE( 1.000000000000000100E-005 ), #6, 'distance_accuracy_value', 'NONE');
#308 = EDGE_CURVE ( 'NONE', #58, #124, #222, .T. ) ;
#309 = FACE_OUTER_BOUND ( 'NONE', #77, .T. ) ;
#310 = VERTEX_POINT ( 'NONE', #119 ) ;
#311 = ORIENTED_EDGE ( 'NONE', *, *, #132, .T. ) ;
#312 = ORIENTED_EDGE ( 'NONE', *, *, #189, .F. ) ;
#313 = VERTEX_POINT ( 'NONE', #96 ) ;
#314 = SURFACE_SIDE_STYLE ('',( #255 ) ) ;
#315 = CARTESIAN_POINT ( 'NONE',  ( -16.46962300963692600, -0.3076063491803936500, -7.000000000000000000 ) ) ;
#316 = DIRECTION ( 'NONE',  ( -0.0000000000000000000, -0.0000000000000000000, -1.000000000000000000 ) ) ;
#317 = CARTESIAN_POINT ( 'NONE',  ( 0.0000000000000000000, 0.0000000000000000000, -7.000000000000000000 ) ) ;
#318 = LINE ( 'NONE', #51, #125 ) ;
#319 = CARTESIAN_POINT ( 'NONE',  ( -16.64999999999999900, -9.349999999999999600, -7.000000000000000000 ) ) ;
#320 = DIRECTION ( 'NONE',  ( -1.000000000000000000, 0.0000000000000000000, 0.0000000000000000000 ) ) ;
#321 = AXIS2_PLACEMENT_3D ( 'NONE', #245, #219, #205 ) ;
#322 = DIRECTION ( 'NONE',  ( -0.0000000000000000000, -0.0000000000000000000, -1.000000000000000000 ) ) ;
#323 = COLOUR_RGB ( '',0.7529411764705882200, 0.7529411764705882200, 0.7529411764705882200 ) ;
#324 = VERTEX_POINT ( 'NONE', #121 ) ;
#325 = ADVANCED_BREP_SHAPE_REPRESENTATION ( '6158838', ( #227, #105 ), #282 ) ;
#326 = COLOUR_RGB ( '',0.7529411764705882200, 0.7529411764705882200, 0.7529411764705882200 ) ;
#327 = LINE ( 'NONE', #221, #256 ) ;
#328 = EDGE_CURVE ( 'NONE', #63, #262, #3, .T. ) ;
#329 = LINE ( 'NONE', #91, #133 ) ;
#330 = ORIENTED_EDGE ( 'NONE', *, *, #308, .F. ) ;
#331 = STYLED_ITEM ( 'NONE', ( #188 ), #325 ) ;
#332 = ORIENTED_EDGE ( 'NONE', *, *, #294, .T. ) ;
#333 = ORIENTED_EDGE ( 'NONE', *, *, #328, .T. ) ;
#334 = ORIENTED_EDGE ( 'NONE', *, *, #210, .F. ) ;
ENDSEC;
END-ISO-10303-21;
