ISO-10303-21;
HEADER;
FILE_DESCRIPTION (( 'STEP AP214' ),
    '1' );
FILE_NAME ('6158846.STEP',
    '2016-06-29T09:18:23',
    ( '' ),
    ( '' ),
    'SwSTEP 2.0',
    'SolidWorks 2014',
    '' );
FILE_SCHEMA (( 'AUTOMOTIVE_DESIGN' ));
ENDSEC;

DATA;
#1 =( GEOMETRIC_REPRESENTATION_CONTEXT ( 3 ) GLOBAL_UNCERTAINTY_ASSIGNED_CONTEXT ( ( #13 ) ) GLOBAL_UNIT_ASSIGNED_CONTEXT ( ( #309, #160, #326 ) ) REPRESENTATION_CONTEXT ( 'NONE', 'WORKASPACE' ) );
#2 = LINE ( 'NONE', #121, #26 ) ;
#3 = CARTESIAN_POINT ( 'NONE',  ( -20.47417243047085100, 8.150000000000000400, 7.000000000000000000 ) ) ;
#4 = ADVANCED_FACE ( 'NONE', ( #83 ), #211, .F. ) ;
#5 = PLANE ( 'NONE',  #191 ) ;
#6 = FILL_AREA_STYLE_COLOUR ( '', #54 ) ;
#7 = CARTESIAN_POINT ( 'NONE',  ( 21.49113333207616000, -0.4576802363850545600, 7.000000000000000000 ) ) ;
#8 = VECTOR ( 'NONE', #73, 1000.000000000000000 ) ;
#9 = VECTOR ( 'NONE', #16, 1000.000000000000100 ) ;
#10 = DIRECTION ( 'NONE',  ( 0.02129140789487412400, -0.9997733122812660900, 0.0000000000000000000 ) ) ;
#11 = EDGE_CURVE ( 'NONE', #299, #78, #80, .T. ) ;
#12 = DIRECTION ( 'NONE',  ( -0.9997733122812662000, -0.02129140789487412800, 0.0000000000000000000 ) ) ;
#13 = UNCERTAINTY_MEASURE_WITH_UNIT (LENGTH_MEASURE( 1.000000000000000100E-005 ), #309, 'distance_accuracy_value', 'NONE');
#14 = LINE ( 'NONE', #7, #65 ) ;
#15 = PLANE ( 'NONE',  #64 ) ;
#16 = DIRECTION ( 'NONE',  ( 0.02129140789487412400, -0.9997733122812660900, -0.0000000000000000000 ) ) ;
#17 = MECHANICAL_DESIGN_GEOMETRIC_PRESENTATION_REPRESENTATION (  '', ( #27 ), #1 ) ;
#18 = CARTESIAN_POINT ( 'NONE',  ( 0.0000000000000000000, 0.0000000000000000000, 0.0000000000000000000 ) ) ;
#19 = SHAPE_DEFINITION_REPRESENTATION ( #22, #110 ) ;
#20 =( NAMED_UNIT ( * ) PLANE_ANGLE_UNIT ( ) SI_UNIT ( $, .RADIAN. ) );
#21 = LINE ( 'NONE', #213, #49 ) ;
#22 = PRODUCT_DEFINITION_SHAPE ( 'NONE', 'NONE',  #35 ) ;
#23 = DIRECTION ( 'NONE',  ( 0.0000000000000000000, 0.0000000000000000000, 1.000000000000000000 ) ) ;
#24 = PRESENTATION_LAYER_ASSIGNMENT (  '', '', ( #27 ) ) ;
#25 = EDGE_CURVE ( 'NONE', #252, #270, #311, .T. ) ;
#26 = VECTOR ( 'NONE', #153, 1000.000000000000100 ) ;
#27 = STYLED_ITEM ( 'NONE', ( #133 ), #110 ) ;
#28 = EDGE_CURVE ( 'NONE', #333, #312, #40, .T. ) ;
#29 = LINE ( 'NONE', #327, #91 ) ;
#30 = CARTESIAN_POINT ( 'NONE',  ( -20.47417243047085100, 8.150000000000000400, 7.000000000000000000 ) ) ;
#31 = ADVANCED_FACE ( 'NONE', ( #99 ), #44, .T. ) ;
#32 = DIRECTION ( 'NONE',  ( 0.02129140789487412400, 0.9997733122812660900, -0.0000000000000000000 ) ) ;
#33 =( GEOMETRIC_REPRESENTATION_CONTEXT ( 3 ) GLOBAL_UNCERTAINTY_ASSIGNED_CONTEXT ( ( #247 ) ) GLOBAL_UNIT_ASSIGNED_CONTEXT ( ( #187, #20, #218 ) ) REPRESENTATION_CONTEXT ( 'NONE', 'WORKASPACE' ) );
#34 = DIRECTION ( 'NONE',  ( 0.02129140789487412400, 0.9997733122812660900, 0.0000000000000000000 ) ) ;
#35 = PRODUCT_DEFINITION ( 'UNKNOWN', '', #162, #313 ) ;
#36 = CARTESIAN_POINT ( 'NONE',  ( 20.29140535733864300, -0.4321305469112056700, 7.000000000000000000 ) ) ;
#37 = CARTESIAN_POINT ( 'NONE',  ( -21.69999999999999600, 9.350000000000001400, 7.000000000000000000 ) ) ;
#38 = DIRECTION ( 'NONE',  ( 0.9997733122812662000, -0.02129140789487412800, 0.0000000000000000000 ) ) ;
#39 = LINE ( 'NONE', #324, #9 ) ;
#40 = LINE ( 'NONE', #318, #86 ) ;
#41 = CARTESIAN_POINT ( 'NONE',  ( -20.10148830939734300, -9.349999999999997900, 7.000000000000000000 ) ) ;
#42 = CARTESIAN_POINT ( 'NONE',  ( 20.10148830939735000, -9.349999999999997900, -7.000000000000000000 ) ) ;
#43 = DIRECTION ( 'NONE',  ( -1.000000000000000000, 0.0000000000000000000, -0.0000000000000000000 ) ) ;
#44 = PLANE ( 'NONE',  #207 ) ;
#45 = LINE ( 'NONE', #217, #8 ) ;
#46 = PRODUCT_CONTEXT ( 'NONE', #269, 'mechanical' ) ;
#47 = EDGE_CURVE ( 'NONE', #138, #299, #131, .T. ) ;
#48 = LINE ( 'NONE', #98, #323 ) ;
#49 = VECTOR ( 'NONE', #239, 1000.000000000000000 ) ;
#50 =( GEOMETRIC_REPRESENTATION_CONTEXT ( 3 ) GLOBAL_UNCERTAINTY_ASSIGNED_CONTEXT ( ( #334 ) ) GLOBAL_UNIT_ASSIGNED_CONTEXT ( ( #149, #322, #180 ) ) REPRESENTATION_CONTEXT ( 'NONE', 'WORKASPACE' ) );
#51 = SURFACE_STYLE_FILL_AREA ( #284 ) ;
#52 = ORIENTED_EDGE ( 'NONE', *, *, #28, .T. ) ;
#53 = EDGE_CURVE ( 'NONE', #287, #112, #135, .T. ) ;
#54 = COLOUR_RGB ( '',0.7529411764705882200, 0.7529411764705882200, 0.7529411764705882200 ) ;
#55 = LINE ( 'NONE', #75, #293 ) ;
#56 = VECTOR ( 'NONE', #288, 1000.000000000000000 ) ;
#57 = DIRECTION ( 'NONE',  ( 0.02129140789487412400, 0.9997733122812660900, -0.0000000000000000000 ) ) ;
#58 = MECHANICAL_DESIGN_GEOMETRIC_PRESENTATION_REPRESENTATION (  '', ( #68 ), #50 ) ;
#59 = PRESENTATION_LAYER_ASSIGNMENT (  '', '', ( #68 ) ) ;
#60 = DIRECTION ( 'NONE',  ( -0.0000000000000000000, -0.0000000000000000000, -1.000000000000000000 ) ) ;
#61 = PRESENTATION_STYLE_ASSIGNMENT (( #306 ) ) ;
#62 = LINE ( 'NONE', #209, #56 ) ;
#63 = DIRECTION ( 'NONE',  ( 0.0000000000000000000, 0.0000000000000000000, -1.000000000000000000 ) ) ;
#64 = AXIS2_PLACEMENT_3D ( 'NONE', #37, #12, #10 ) ;
#65 = VECTOR ( 'NONE', #57, 1000.000000000000100 ) ;
#66 = CLOSED_SHELL ( 'NONE', ( #193, #273, #255, #31, #170, #280, #111, #139, #249, #4 ) ) ;
#67 = FACE_OUTER_BOUND ( 'NONE', #189, .T. ) ;
#68 = STYLED_ITEM ( 'NONE', ( #61 ), #298 ) ;
#69 = CARTESIAN_POINT ( 'NONE',  ( -21.69999999999999600, 9.350000000000001400, -7.000000000000000000 ) ) ;
#70 = PLANE ( 'NONE',  #71 ) ;
#71 = AXIS2_PLACEMENT_3D ( 'NONE', #123, #63, #43 ) ;
#72 = LINE ( 'NONE', #89, #101 ) ;
#73 = DIRECTION ( 'NONE',  ( -1.000000000000000000, 0.0000000000000000000, 0.0000000000000000000 ) ) ;
#74 = EDGE_LOOP ( 'NONE', ( #104, #105, #265, #295, #250, #237, #245, #227 ) ) ;
#75 = CARTESIAN_POINT ( 'NONE',  ( 20.29140535733864300, -0.4321305469112056700, -7.000000000000000000 ) ) ;
#76 = CARTESIAN_POINT ( 'NONE',  ( -20.29140535733863600, -0.4321305469112055000, -7.000000000000000000 ) ) ;
#77 = ORIENTED_EDGE ( 'NONE', *, *, #28, .F. ) ;
#78 = VERTEX_POINT ( 'NONE', #302 ) ;
#79 = APPLICATION_PROTOCOL_DEFINITION ( 'draft international standard', 'automotive_design', 1998, #244 ) ;
#80 = LINE ( 'NONE', #202, #124 ) ;
#81 = FACE_OUTER_BOUND ( 'NONE', #118, .T. ) ;
#82 = FACE_OUTER_BOUND ( 'NONE', #210, .T. ) ;
#83 = FACE_OUTER_BOUND ( 'NONE', #168, .T. ) ;
#84 = ORIENTED_EDGE ( 'NONE', *, *, #292, .T. ) ;
#85 = EDGE_CURVE ( 'NONE', #234, #113, #159, .T. ) ;
#86 = VECTOR ( 'NONE', #97, 1000.000000000000000 ) ;
#87 = AXIS2_PLACEMENT_3D ( 'NONE', #114, #93, #90 ) ;
#88 = DIRECTION ( 'NONE',  ( -0.0000000000000000000, -0.0000000000000000000, -1.000000000000000000 ) ) ;
#89 = CARTESIAN_POINT ( 'NONE',  ( -21.69999999999999600, -9.349999999999997900, 7.000000000000000000 ) ) ;
#90 = DIRECTION ( 'NONE',  ( -1.000000000000000000, 0.0000000000000000000, -0.0000000000000000000 ) ) ;
#91 = VECTOR ( 'NONE', #310, 1000.000000000000000 ) ;
#92 = ORIENTED_EDGE ( 'NONE', *, *, #240, .F. ) ;
#93 = DIRECTION ( 'NONE',  ( 0.0000000000000000000, 0.0000000000000000000, -1.000000000000000000 ) ) ;
#94 = AXIS2_PLACEMENT_3D ( 'NONE', #171, #120, #116 ) ;
#95 = VECTOR ( 'NONE', #32, 1000.000000000000100 ) ;
#96 = VERTEX_POINT ( 'NONE', #281 ) ;
#97 = DIRECTION ( 'NONE',  ( 0.0000000000000000000, -0.0000000000000000000, -1.000000000000000000 ) ) ;
#98 = CARTESIAN_POINT ( 'NONE',  ( 21.70000000000000300, 9.350000000000001400, 7.000000000000000000 ) ) ;
#99 = FACE_OUTER_BOUND ( 'NONE', #230, .T. ) ;
#100 = DIRECTION ( 'NONE',  ( 0.02129140789487412400, -0.9997733122812660900, -0.0000000000000000000 ) ) ;
#101 = VECTOR ( 'NONE', #115, 1000.000000000000000 ) ;
#102 = FILL_AREA_STYLE ('',( #156 ) ) ;
#103 = AXIS2_PLACEMENT_3D ( 'NONE', #179, #175, #172 ) ;
#104 = ORIENTED_EDGE ( 'NONE', *, *, #307, .F. ) ;
#105 = ORIENTED_EDGE ( 'NONE', *, *, #314, .T. ) ;
#106 = ORIENTED_EDGE ( 'NONE', *, *, #307, .T. ) ;
#107 = LINE ( 'NONE', #184, #253 ) ;
#108 = AXIS2_PLACEMENT_3D ( 'NONE', #214, #201, #198 ) ;
#109 = CARTESIAN_POINT ( 'NONE',  ( -21.69999999999999600, 9.350000000000001400, 7.000000000000000000 ) ) ;
#110 = ADVANCED_BREP_SHAPE_REPRESENTATION ( '6158846', ( #298, #329 ), #33 ) ;
#111 = ADVANCED_FACE ( 'NONE', ( #157 ), #5, .F. ) ;
#112 = VERTEX_POINT ( 'NONE', #289 ) ;
#113 = VERTEX_POINT ( 'NONE', #256 ) ;
#114 = CARTESIAN_POINT ( 'NONE',  ( 0.0000000000000000000, 0.0000000000000000000, -7.000000000000000000 ) ) ;
#115 = DIRECTION ( 'NONE',  ( 1.000000000000000000, 0.0000000000000000000, 0.0000000000000000000 ) ) ;
#116 = DIRECTION ( 'NONE',  ( 0.0000000000000000000, -0.0000000000000000000, -1.000000000000000000 ) ) ;
#117 = VECTOR ( 'NONE', #140, 1000.000000000000000 ) ;
#118 = EDGE_LOOP ( 'NONE', ( #196, #192, #228, #174 ) ) ;
#119 = SURFACE_SIDE_STYLE ('',( #51 ) ) ;
#120 = DIRECTION ( 'NONE',  ( 0.0000000000000000000, -1.000000000000000000, 0.0000000000000000000 ) ) ;
#121 = CARTESIAN_POINT ( 'NONE',  ( -21.49113333207615300, -0.4576802363850544000, 7.000000000000000000 ) ) ;
#122 = VECTOR ( 'NONE', #137, 1000.000000000000000 ) ;
#123 = CARTESIAN_POINT ( 'NONE',  ( 0.0000000000000000000, 0.0000000000000000000, 7.000000000000000000 ) ) ;
#124 = VECTOR ( 'NONE', #181, 1000.000000000000100 ) ;
#125 = CARTESIAN_POINT ( 'NONE',  ( -21.69999999999999600, 9.350000000000001400, -7.000000000000000000 ) ) ;
#126 = PLANE ( 'NONE',  #87 ) ;
#127 = SURFACE_STYLE_USAGE ( .BOTH. , #294 ) ;
#128 = FACE_OUTER_BOUND ( 'NONE', #235, .T. ) ;
#129 = ORIENTED_EDGE ( 'NONE', *, *, #47, .F. ) ;
#130 = LINE ( 'NONE', #144, #117 ) ;
#131 = LINE ( 'NONE', #317, #158 ) ;
#132 = FACE_OUTER_BOUND ( 'NONE', #74, .T. ) ;
#133 = PRESENTATION_STYLE_ASSIGNMENT (( #127 ) ) ;
#134 = EDGE_LOOP ( 'NONE', ( #212, #52, #106, #129 ) ) ;
#135 = LINE ( 'NONE', #30, #145 ) ;
#136 = ORIENTED_EDGE ( 'NONE', *, *, #331, .T. ) ;
#137 = DIRECTION ( 'NONE',  ( -0.0000000000000000000, -0.0000000000000000000, -1.000000000000000000 ) ) ;
#138 = VERTEX_POINT ( 'NONE', #267 ) ;
#139 = ADVANCED_FACE ( 'NONE', ( #142 ), #258, .F. ) ;
#140 = DIRECTION ( 'NONE',  ( -0.0000000000000000000, -0.0000000000000000000, -1.000000000000000000 ) ) ;
#141 = CARTESIAN_POINT ( 'NONE',  ( 20.47417243047085800, 8.150000000000000400, 7.000000000000000000 ) ) ;
#142 = FACE_OUTER_BOUND ( 'NONE', #200, .T. ) ;
#143 = ORIENTED_EDGE ( 'NONE', *, *, #278, .T. ) ;
#144 = CARTESIAN_POINT ( 'NONE',  ( -21.30176039633858700, -9.349999999999997900, 7.000000000000000000 ) ) ;
#145 = VECTOR ( 'NONE', #60, 1000.000000000000000 ) ;
#146 = PRODUCT ( '6158846', '6158846', '', ( #46 ) ) ;
#147 = CARTESIAN_POINT ( 'NONE',  ( -21.30176039633858700, -9.349999999999997900, -7.000000000000000000 ) ) ;
#148 = ORIENTED_EDGE ( 'NONE', *, *, #303, .T. ) ;
#149 =( LENGTH_UNIT ( ) NAMED_UNIT ( * ) SI_UNIT ( .MILLI., .METRE. ) );
#150 = VECTOR ( 'NONE', #232, 1000.000000000000000 ) ;
#151 = AXIS2_PLACEMENT_3D ( 'NONE', #254, #236, #233 ) ;
#152 = CARTESIAN_POINT ( 'NONE',  ( 20.47417243047085800, 8.150000000000000400, -7.000000000000000000 ) ) ;
#153 = DIRECTION ( 'NONE',  ( 0.02129140789487412400, -0.9997733122812660900, -0.0000000000000000000 ) ) ;
#154 = CARTESIAN_POINT ( 'NONE',  ( 0.0000000000000000000, 8.150000000000000400, -7.000000000000000000 ) ) ;
#155 = PLANE ( 'NONE',  #108 ) ;
#156 = FILL_AREA_STYLE_COLOUR ( '', #188 ) ;
#157 = FACE_OUTER_BOUND ( 'NONE', #134, .T. ) ;
#158 = VECTOR ( 'NONE', #308, 1000.000000000000000 ) ;
#159 = LINE ( 'NONE', #304, #166 ) ;
#160 =( NAMED_UNIT ( * ) PLANE_ANGLE_UNIT ( ) SI_UNIT ( $, .RADIAN. ) );
#161 = CARTESIAN_POINT ( 'NONE',  ( 21.30176039633859000, -9.349999999999997900, -7.000000000000000000 ) ) ;
#162 = PRODUCT_DEFINITION_FORMATION_WITH_SPECIFIED_SOURCE ( 'ANY', '', #146, .NOT_KNOWN. ) ;
#163 = LINE ( 'NONE', #41, #272 ) ;
#164 = EDGE_CURVE ( 'NONE', #241, #219, #261, .T. ) ;
#165 = ORIENTED_EDGE ( 'NONE', *, *, #314, .F. ) ;
#166 = VECTOR ( 'NONE', #286, 1000.000000000000000 ) ;
#167 = VECTOR ( 'NONE', #100, 1000.000000000000100 ) ;
#168 = EDGE_LOOP ( 'NONE', ( #285, #257, #330, #143 ) ) ;
#169 = CARTESIAN_POINT ( 'NONE',  ( -20.10148830939734300, -9.349999999999997900, 7.000000000000000000 ) ) ;
#170 = ADVANCED_FACE ( 'NONE', ( #82 ), #155, .F. ) ;
#171 = CARTESIAN_POINT ( 'NONE',  ( -21.69999999999999600, 8.150000000000000400, 7.000000000000000000 ) ) ;
#172 = DIRECTION ( 'NONE',  ( 0.0000000000000000000, -0.0000000000000000000, 1.000000000000000000 ) ) ;
#173 = ORIENTED_EDGE ( 'NONE', *, *, #11, .T. ) ;
#174 = ORIENTED_EDGE ( 'NONE', *, *, #53, .T. ) ;
#175 = DIRECTION ( 'NONE',  ( 0.0000000000000000000, 1.000000000000000000, 0.0000000000000000000 ) ) ;
#176 = PLANE ( 'NONE',  #103 ) ;
#177 = ORIENTED_EDGE ( 'NONE', *, *, #274, .T. ) ;
#178 = ORIENTED_EDGE ( 'NONE', *, *, #305, .F. ) ;
#179 = CARTESIAN_POINT ( 'NONE',  ( -21.69999999999999600, -9.349999999999997900, 7.000000000000000000 ) ) ;
#180 =( NAMED_UNIT ( * ) SI_UNIT ( $, .STERADIAN. ) SOLID_ANGLE_UNIT ( ) );
#181 = DIRECTION ( 'NONE',  ( 0.02129140789487412400, 0.9997733122812660900, -0.0000000000000000000 ) ) ;
#182 = PLANE ( 'NONE',  #94 ) ;
#183 = ORIENTED_EDGE ( 'NONE', *, *, #300, .F. ) ;
#184 = CARTESIAN_POINT ( 'NONE',  ( -21.49113333207615300, -0.4576802363850544000, -7.000000000000000000 ) ) ;
#185 = ORIENTED_EDGE ( 'NONE', *, *, #283, .T. ) ;
#186 = CARTESIAN_POINT ( 'NONE',  ( -20.50027202526247900, 9.375549689473849900, 7.000000000000000000 ) ) ;
#187 =( LENGTH_UNIT ( ) NAMED_UNIT ( * ) SI_UNIT ( .MILLI., .METRE. ) );
#188 = COLOUR_RGB ( '',0.7529411764705882200, 0.7529411764705882200, 0.7529411764705882200 ) ;
#189 = EDGE_LOOP ( 'NONE', ( #221, #279, #195, #222 ) ) ;
#190 = VERTEX_POINT ( 'NONE', #208 ) ;
#191 = AXIS2_PLACEMENT_3D ( 'NONE', #282, #263, #260 ) ;
#192 = ORIENTED_EDGE ( 'NONE', *, *, #164, .F. ) ;
#193 = ADVANCED_FACE ( 'NONE', ( #67 ), #176, .F. ) ;
#194 = ORIENTED_EDGE ( 'NONE', *, *, #274, .F. ) ;
#195 = ORIENTED_EDGE ( 'NONE', *, *, #240, .T. ) ;
#196 = ORIENTED_EDGE ( 'NONE', *, *, #325, .F. ) ;
#197 = DIRECTION ( 'NONE',  ( 0.02129140789487412400, -0.9997733122812660900, 0.0000000000000000000 ) ) ;
#198 = DIRECTION ( 'NONE',  ( 0.0000000000000000000, -0.0000000000000000000, -1.000000000000000000 ) ) ;
#199 = VECTOR ( 'NONE', #215, 1000.000000000000000 ) ;
#200 = EDGE_LOOP ( 'NONE', ( #165, #77, #177, #206 ) ) ;
#201 = DIRECTION ( 'NONE',  ( 0.0000000000000000000, -1.000000000000000000, 0.0000000000000000000 ) ) ;
#202 = CARTESIAN_POINT ( 'NONE',  ( 21.49113333207616000, -0.4576802363850545600, -7.000000000000000000 ) ) ;
#203 = CARTESIAN_POINT ( 'NONE',  ( 21.70000000000000300, 9.350000000000001400, 7.000000000000000000 ) ) ;
#204 = ORIENTED_EDGE ( 'NONE', *, *, #303, .F. ) ;
#205 = ORIENTED_EDGE ( 'NONE', *, *, #25, .T. ) ;
#206 = ORIENTED_EDGE ( 'NONE', *, *, #164, .T. ) ;
#207 = AXIS2_PLACEMENT_3D ( 'NONE', #203, #38, #34 ) ;
#208 = CARTESIAN_POINT ( 'NONE',  ( 21.70000000000000300, 9.350000000000001400, 7.000000000000000000 ) ) ;
#209 = CARTESIAN_POINT ( 'NONE',  ( -21.69999999999999600, 9.350000000000001400, 7.000000000000000000 ) ) ;
#210 = EDGE_LOOP ( 'NONE', ( #276, #251, #297, #319 ) ) ;
#211 = PLANE ( 'NONE',  #225 ) ;
#212 = ORIENTED_EDGE ( 'NONE', *, *, #283, .F. ) ;
#213 = CARTESIAN_POINT ( 'NONE',  ( -21.69999999999999600, -9.349999999999997900, -7.000000000000000000 ) ) ;
#214 = CARTESIAN_POINT ( 'NONE',  ( -21.69999999999999600, 9.350000000000001400, 7.000000000000000000 ) ) ;
#215 = DIRECTION ( 'NONE',  ( -1.000000000000000000, 0.0000000000000000000, 0.0000000000000000000 ) ) ;
#216 = CARTESIAN_POINT ( 'NONE',  ( 20.47417243047085800, 8.150000000000000400, 7.000000000000000000 ) ) ;
#217 = CARTESIAN_POINT ( 'NONE',  ( 0.0000000000000000000, 8.150000000000000400, 7.000000000000000000 ) ) ;
#218 =( NAMED_UNIT ( * ) SI_UNIT ( $, .STERADIAN. ) SOLID_ANGLE_UNIT ( ) );
#219 = VERTEX_POINT ( 'NONE', #152 ) ;
#220 = DIRECTION ( 'NONE',  ( 1.000000000000000000, 0.0000000000000000000, 0.0000000000000000000 ) ) ;
#221 = ORIENTED_EDGE ( 'NONE', *, *, #278, .F. ) ;
#222 = ORIENTED_EDGE ( 'NONE', *, *, #85, .T. ) ;
#223 = VERTEX_POINT ( 'NONE', #169 ) ;
#224 = ORIENTED_EDGE ( 'NONE', *, *, #259, .T. ) ;
#225 = AXIS2_PLACEMENT_3D ( 'NONE', #186, #238, #197 ) ;
#226 = LINE ( 'NONE', #154, #199 ) ;
#227 = ORIENTED_EDGE ( 'NONE', *, *, #11, .F. ) ;
#228 = ORIENTED_EDGE ( 'NONE', *, *, #300, .T. ) ;
#229 = SURFACE_STYLE_FILL_AREA ( #102 ) ;
#230 = EDGE_LOOP ( 'NONE', ( #173, #242, #321, #246 ) ) ;
#231 = EDGE_LOOP ( 'NONE', ( #136, #92, #204, #205 ) ) ;
#232 = DIRECTION ( 'NONE',  ( -0.0000000000000000000, -0.0000000000000000000, -1.000000000000000000 ) ) ;
#233 = DIRECTION ( 'NONE',  ( 0.02129140789487412400, 0.9997733122812660900, 0.0000000000000000000 ) ) ;
#234 = VERTEX_POINT ( 'NONE', #147 ) ;
#235 = EDGE_LOOP ( 'NONE', ( #194, #185, #84, #296, #148, #224, #178, #183 ) ) ;
#236 = DIRECTION ( 'NONE',  ( 0.9997733122812662000, -0.02129140789487412800, 0.0000000000000000000 ) ) ;
#237 = ORIENTED_EDGE ( 'NONE', *, *, #331, .F. ) ;
#238 = DIRECTION ( 'NONE',  ( -0.9997733122812662000, -0.02129140789487412800, 0.0000000000000000000 ) ) ;
#239 = DIRECTION ( 'NONE',  ( 1.000000000000000000, 0.0000000000000000000, 0.0000000000000000000 ) ) ;
#240 = EDGE_CURVE ( 'NONE', #96, #234, #130, .T. ) ;
#241 = VERTEX_POINT ( 'NONE', #141 ) ;
#242 = ORIENTED_EDGE ( 'NONE', *, *, #320, .F. ) ;
#243 = APPLICATION_PROTOCOL_DEFINITION ( 'draft international standard', 'automotive_design', 1998, #269 ) ;
#244 = APPLICATION_CONTEXT ( 'automotive_design' ) ;
#245 = ORIENTED_EDGE ( 'NONE', *, *, #316, .F. ) ;
#246 = ORIENTED_EDGE ( 'NONE', *, *, #47, .T. ) ;
#247 = UNCERTAINTY_MEASURE_WITH_UNIT (LENGTH_MEASURE( 1.000000000000000100E-005 ), #187, 'distance_accuracy_value', 'NONE');
#248 = PRODUCT_RELATED_PRODUCT_CATEGORY ( 'part', '', ( #146 ) ) ;
#249 = ADVANCED_FACE ( 'NONE', ( #81 ), #182, .T. ) ;
#250 = ORIENTED_EDGE ( 'NONE', *, *, #85, .F. ) ;
#251 = ORIENTED_EDGE ( 'NONE', *, *, #25, .F. ) ;
#252 = VERTEX_POINT ( 'NONE', #109 ) ;
#253 = VECTOR ( 'NONE', #291, 1000.000000000000100 ) ;
#254 = CARTESIAN_POINT ( 'NONE',  ( 20.50027202526248600, 9.375549689473849900, 7.000000000000000000 ) ) ;
#255 = ADVANCED_FACE ( 'NONE', ( #132 ), #126, .T. ) ;
#256 = CARTESIAN_POINT ( 'NONE',  ( -20.10148830939734300, -9.349999999999997900, -7.000000000000000000 ) ) ;
#257 = ORIENTED_EDGE ( 'NONE', *, *, #53, .F. ) ;
#258 = PLANE ( 'NONE',  #151 ) ;
#259 = EDGE_CURVE ( 'NONE', #96, #223, #72, .T. ) ;
#260 = DIRECTION ( 'NONE',  ( 0.0000000000000000000, -0.0000000000000000000, 1.000000000000000000 ) ) ;
#261 = LINE ( 'NONE', #216, #150 ) ;
#262 = FACE_OUTER_BOUND ( 'NONE', #231, .T. ) ;
#263 = DIRECTION ( 'NONE',  ( 0.0000000000000000000, 1.000000000000000000, 0.0000000000000000000 ) ) ;
#264 = DIRECTION ( 'NONE',  ( -1.000000000000000000, -0.0000000000000000000, -0.0000000000000000000 ) ) ;
#265 = ORIENTED_EDGE ( 'NONE', *, *, #325, .T. ) ;
#266 = DIRECTION ( 'NONE',  ( -0.0000000000000000000, -0.0000000000000000000, -1.000000000000000000 ) ) ;
#267 = CARTESIAN_POINT ( 'NONE',  ( 21.30176039633859000, -9.349999999999997900, 7.000000000000000000 ) ) ;
#268 = CARTESIAN_POINT ( 'NONE',  ( 20.10148830939735000, -9.349999999999997900, 7.000000000000000000 ) ) ;
#269 = APPLICATION_CONTEXT ( 'automotive_design' ) ;
#270 = VERTEX_POINT ( 'NONE', #69 ) ;
#271 = VECTOR ( 'NONE', #264, 1000.000000000000000 ) ;
#272 = VECTOR ( 'NONE', #88, 1000.000000000000000 ) ;
#273 = ADVANCED_FACE ( 'NONE', ( #128 ), #70, .F. ) ;
#274 = EDGE_CURVE ( 'NONE', #333, #241, #275, .T. ) ;
#275 = LINE ( 'NONE', #36, #95 ) ;
#276 = ORIENTED_EDGE ( 'NONE', *, *, #316, .T. ) ;
#277 = LINE ( 'NONE', #76, #167 ) ;
#278 = EDGE_CURVE ( 'NONE', #223, #113, #163, .T. ) ;
#279 = ORIENTED_EDGE ( 'NONE', *, *, #259, .F. ) ;
#280 = ADVANCED_FACE ( 'NONE', ( #262 ), #15, .T. ) ;
#281 = CARTESIAN_POINT ( 'NONE',  ( -21.30176039633858700, -9.349999999999997900, 7.000000000000000000 ) ) ;
#282 = CARTESIAN_POINT ( 'NONE',  ( -21.69999999999999600, -9.349999999999997900, 7.000000000000000000 ) ) ;
#283 = EDGE_CURVE ( 'NONE', #333, #138, #29, .T. ) ;
#284 = FILL_AREA_STYLE ('',( #6 ) ) ;
#285 = ORIENTED_EDGE ( 'NONE', *, *, #328, .F. ) ;
#286 = DIRECTION ( 'NONE',  ( 1.000000000000000000, 0.0000000000000000000, 0.0000000000000000000 ) ) ;
#287 = VERTEX_POINT ( 'NONE', #3 ) ;
#288 = DIRECTION ( 'NONE',  ( -1.000000000000000000, -0.0000000000000000000, -0.0000000000000000000 ) ) ;
#289 = CARTESIAN_POINT ( 'NONE',  ( -20.47417243047085100, 8.150000000000000400, -7.000000000000000000 ) ) ;
#290 = DIRECTION ( 'NONE',  ( 0.02129140789487412400, 0.9997733122812660900, -0.0000000000000000000 ) ) ;
#291 = DIRECTION ( 'NONE',  ( 0.02129140789487412400, -0.9997733122812660900, -0.0000000000000000000 ) ) ;
#292 = EDGE_CURVE ( 'NONE', #138, #190, #14, .T. ) ;
#293 = VECTOR ( 'NONE', #290, 1000.000000000000100 ) ;
#294 = SURFACE_SIDE_STYLE ('',( #229 ) ) ;
#295 = ORIENTED_EDGE ( 'NONE', *, *, #328, .T. ) ;
#296 = ORIENTED_EDGE ( 'NONE', *, *, #301, .T. ) ;
#297 = ORIENTED_EDGE ( 'NONE', *, *, #301, .F. ) ;
#298 = MANIFOLD_SOLID_BREP ( 'Shell3', #66 ) ;
#299 = VERTEX_POINT ( 'NONE', #161 ) ;
#300 = EDGE_CURVE ( 'NONE', #241, #287, #45, .T. ) ;
#301 = EDGE_CURVE ( 'NONE', #190, #252, #62, .T. ) ;
#302 = CARTESIAN_POINT ( 'NONE',  ( 21.70000000000000300, 9.350000000000001400, -7.000000000000000000 ) ) ;
#303 = EDGE_CURVE ( 'NONE', #252, #96, #2, .T. ) ;
#304 = CARTESIAN_POINT ( 'NONE',  ( -21.69999999999999600, -9.349999999999997900, -7.000000000000000000 ) ) ;
#305 = EDGE_CURVE ( 'NONE', #287, #223, #39, .T. ) ;
#306 = SURFACE_STYLE_USAGE ( .BOTH. , #119 ) ;
#307 = EDGE_CURVE ( 'NONE', #312, #299, #21, .T. ) ;
#308 = DIRECTION ( 'NONE',  ( 0.0000000000000000000, -0.0000000000000000000, -1.000000000000000000 ) ) ;
#309 =( LENGTH_UNIT ( ) NAMED_UNIT ( * ) SI_UNIT ( .MILLI., .METRE. ) );
#310 = DIRECTION ( 'NONE',  ( 1.000000000000000000, 0.0000000000000000000, 0.0000000000000000000 ) ) ;
#311 = LINE ( 'NONE', #315, #122 ) ;
#312 = VERTEX_POINT ( 'NONE', #42 ) ;
#313 = PRODUCT_DEFINITION_CONTEXT ( 'detailed design', #244, 'design' ) ;
#314 = EDGE_CURVE ( 'NONE', #312, #219, #55, .T. ) ;
#315 = CARTESIAN_POINT ( 'NONE',  ( -21.69999999999999600, 9.350000000000001400, 7.000000000000000000 ) ) ;
#316 = EDGE_CURVE ( 'NONE', #78, #270, #332, .T. ) ;
#317 = CARTESIAN_POINT ( 'NONE',  ( 21.30176039633859400, -9.349999999999997900, 7.000000000000000000 ) ) ;
#318 = CARTESIAN_POINT ( 'NONE',  ( 20.10148830939735000, -9.349999999999997900, 7.000000000000000000 ) ) ;
#319 = ORIENTED_EDGE ( 'NONE', *, *, #320, .T. ) ;
#320 = EDGE_CURVE ( 'NONE', #190, #78, #48, .T. ) ;
#321 = ORIENTED_EDGE ( 'NONE', *, *, #292, .F. ) ;
#322 =( NAMED_UNIT ( * ) PLANE_ANGLE_UNIT ( ) SI_UNIT ( $, .RADIAN. ) );
#323 = VECTOR ( 'NONE', #266, 1000.000000000000000 ) ;
#324 = CARTESIAN_POINT ( 'NONE',  ( -20.29140535733863600, -0.4321305469112055000, 7.000000000000000000 ) ) ;
#325 = EDGE_CURVE ( 'NONE', #219, #112, #226, .T. ) ;
#326 =( NAMED_UNIT ( * ) SI_UNIT ( $, .STERADIAN. ) SOLID_ANGLE_UNIT ( ) );
#327 = CARTESIAN_POINT ( 'NONE',  ( -21.69999999999999600, -9.349999999999997900, 7.000000000000000000 ) ) ;
#328 = EDGE_CURVE ( 'NONE', #112, #113, #277, .T. ) ;
#329 = AXIS2_PLACEMENT_3D ( 'NONE', #18, #23, #220 ) ;
#330 = ORIENTED_EDGE ( 'NONE', *, *, #305, .T. ) ;
#331 = EDGE_CURVE ( 'NONE', #270, #234, #107, .T. ) ;
#332 = LINE ( 'NONE', #125, #271 ) ;
#333 = VERTEX_POINT ( 'NONE', #268 ) ;
#334 = UNCERTAINTY_MEASURE_WITH_UNIT (LENGTH_MEASURE( 1.000000000000000100E-005 ), #149, 'distance_accuracy_value', 'NONE');
ENDSEC;
END-ISO-10303-21;
