ISO-10303-21;
HEADER;
FILE_DESCRIPTION (( 'STEP AP214' ),
    '1' );
FILE_NAME ('6158889.stp',
    '2016-06-30T12:25:37',
    ( '' ),
    ( '' ),
    'SwSTEP 2.0',
    'SolidWorks 2014',
    '' );
FILE_SCHEMA (( 'AUTOMOTIVE_DESIGN' ));
ENDSEC;

DATA;
#1 = VECTOR ( 'NONE', #290, 1000.000000000000000 ) ;
#2 = VECTOR ( 'NONE', #11, 1000.000000000000000 ) ;
#3 = EDGE_CURVE ( 'NONE', #319, #89, #177, .T. ) ;
#4 = EDGE_CURVE ( 'NONE', #117, #23, #159, .T. ) ;
#5 = EDGE_CURVE ( 'NONE', #137, #317, #299, .T. ) ;
#6 = EDGE_CURVE ( 'NONE', #51, #137, #129, .T. ) ;
#7 = LINE ( 'NONE', #253, #1 ) ;
#8 = SURFACE_STYLE_USAGE ( .BOTH. , #13 ) ;
#9 = ORIENTED_EDGE ( 'NONE', *, *, #334, .F. ) ;
#10 = UNCERTAINTY_MEASURE_WITH_UNIT (LENGTH_MEASURE( 1.000000000000000100E-005 ), #314, 'distance_accuracy_value', 'NONE');
#11 = DIRECTION ( 'NONE',  ( 1.000000000000000000, 0.0000000000000000000, 0.0000000000000000000 ) ) ;
#12 = EDGE_CURVE ( 'NONE', #110, #317, #143, .T. ) ;
#13 = SURFACE_SIDE_STYLE ('',( #298 ) ) ;
#14 = EDGE_CURVE ( 'NONE', #56, #319, #59, .T. ) ;
#15 = ORIENTED_EDGE ( 'NONE', *, *, #307, .F. ) ;
#16 = VERTEX_POINT ( 'NONE', #276 ) ;
#17 = ORIENTED_EDGE ( 'NONE', *, *, #35, .T. ) ;
#18 = DIRECTION ( 'NONE',  ( 0.0000000000000000000, 0.0000000000000000000, -1.000000000000000000 ) ) ;
#19 = EDGE_CURVE ( 'NONE', #36, #89, #293, .T. ) ;
#20 = DIRECTION ( 'NONE',  ( 0.0000000000000000000, -1.000000000000000000, 0.0000000000000000000 ) ) ;
#21 = EDGE_CURVE ( 'NONE', #134, #16, #303, .T. ) ;
#22 = ORIENTED_EDGE ( 'NONE', *, *, #5, .T. ) ;
#23 = VERTEX_POINT ( 'NONE', #109 ) ;
#24 = ORIENTED_EDGE ( 'NONE', *, *, #4, .T. ) ;
#25 = PRODUCT_DEFINITION ( 'UNKNOWN', '', #275, #233 ) ;
#26 = ORIENTED_EDGE ( 'NONE', *, *, #312, .T. ) ;
#27 = SURFACE_SIDE_STYLE ('',( #250 ) ) ;
#28 = CLOSED_SHELL ( 'NONE', ( #46, #148, #119, #96, #171, #67, #174, #269, #264, #195 ) ) ;
#29 = DIRECTION ( 'NONE',  ( 0.0000000000000000000, -0.0000000000000000000, 1.000000000000000000 ) ) ;
#30 = ORIENTED_EDGE ( 'NONE', *, *, #330, .T. ) ;
#31 = ORIENTED_EDGE ( 'NONE', *, *, #21, .F. ) ;
#32 = EDGE_LOOP ( 'NONE', ( #34, #216, #37, #111 ) ) ;
#33 = DIRECTION ( 'NONE',  ( 0.0000000000000000000, 1.000000000000000000, 0.0000000000000000000 ) ) ;
#34 = ORIENTED_EDGE ( 'NONE', *, *, #326, .F. ) ;
#35 = EDGE_CURVE ( 'NONE', #130, #86, #302, .T. ) ;
#36 = VERTEX_POINT ( 'NONE', #327 ) ;
#37 = ORIENTED_EDGE ( 'NONE', *, *, #316, .T. ) ;
#38 = FILL_AREA_STYLE ('',( #39 ) ) ;
#39 = FILL_AREA_STYLE_COLOUR ( '', #219 ) ;
#40 = APPLICATION_CONTEXT ( 'automotive_design' ) ;
#41 = CARTESIAN_POINT ( 'NONE',  ( 20.50000000000000400, 12.14999999999999700, 7.000000000000000000 ) ) ;
#42 = SHAPE_DEFINITION_REPRESENTATION ( #54, #95 ) ;
#43 = ORIENTED_EDGE ( 'NONE', *, *, #325, .T. ) ;
#44 = DIRECTION ( 'NONE',  ( 0.0000000000000000000, -1.000000000000000000, 0.0000000000000000000 ) ) ;
#45 = CARTESIAN_POINT ( 'NONE',  ( -21.69999999999999600, 12.14999999999999700, 7.000000000000000000 ) ) ;
#46 = ADVANCED_FACE ( 'NONE', ( #279 ), #80, .F. ) ;
#47 = ORIENTED_EDGE ( 'NONE', *, *, #294, .T. ) ;
#48 = CARTESIAN_POINT ( 'NONE',  ( -20.49999999999999600, -13.35000000000000100, 7.000000000000000000 ) ) ;
#49 = CARTESIAN_POINT ( 'NONE',  ( -20.49999999999999600, 0.0000000000000000000, 7.000000000000000000 ) ) ;
#50 = ORIENTED_EDGE ( 'NONE', *, *, #323, .F. ) ;
#51 = VERTEX_POINT ( 'NONE', #280 ) ;
#52 = ORIENTED_EDGE ( 'NONE', *, *, #333, .F. ) ;
#53 = DIRECTION ( 'NONE',  ( 0.0000000000000000000, -0.0000000000000000000, -1.000000000000000000 ) ) ;
#54 = PRODUCT_DEFINITION_SHAPE ( 'NONE', 'NONE',  #25 ) ;
#55 = AXIS2_PLACEMENT_3D ( 'NONE', #113, #127, #108 ) ;
#56 = VERTEX_POINT ( 'NONE', #304 ) ;
#57 = ORIENTED_EDGE ( 'NONE', *, *, #3, .T. ) ;
#58 = ORIENTED_EDGE ( 'NONE', *, *, #316, .F. ) ;
#59 = LINE ( 'NONE', #116, #286 ) ;
#60 = APPLICATION_PROTOCOL_DEFINITION ( 'draft international standard', 'automotive_design', 1998, #40 ) ;
#61 = CARTESIAN_POINT ( 'NONE',  ( 21.70000000000000300, -13.35000000000000100, -7.000000000000000000 ) ) ;
#62 = DIRECTION ( 'NONE',  ( -0.0000000000000000000, -0.0000000000000000000, -1.000000000000000000 ) ) ;
#63 = CARTESIAN_POINT ( 'NONE',  ( 21.70000000000000300, -13.35000000000000100, 7.000000000000000000 ) ) ;
#64 = VECTOR ( 'NONE', #205, 1000.000000000000000 ) ;
#65 = ORIENTED_EDGE ( 'NONE', *, *, #311, .T. ) ;
#66 = DIRECTION ( 'NONE',  ( -1.000000000000000000, -0.0000000000000000000, -0.0000000000000000000 ) ) ;
#67 = ADVANCED_FACE ( 'NONE', ( #278 ), #249, .F. ) ;
#68 = ORIENTED_EDGE ( 'NONE', *, *, #310, .T. ) ;
#69 = ORIENTED_EDGE ( 'NONE', *, *, #323, .T. ) ;
#70 = CARTESIAN_POINT ( 'NONE',  ( -21.69999999999999600, 13.34999999999999800, 7.000000000000000000 ) ) ;
#71 = ORIENTED_EDGE ( 'NONE', *, *, #5, .F. ) ;
#72 = EDGE_LOOP ( 'NONE', ( #43, #149, #322, #17 ) ) ;
#73 = ORIENTED_EDGE ( 'NONE', *, *, #310, .F. ) ;
#74 = APPLICATION_PROTOCOL_DEFINITION ( 'draft international standard', 'automotive_design', 1998, #101 ) ;
#75 =( NAMED_UNIT ( * ) PLANE_ANGLE_UNIT ( ) SI_UNIT ( $, .RADIAN. ) );
#76 = CARTESIAN_POINT ( 'NONE',  ( -21.69999999999999600, -13.35000000000000100, 7.000000000000000000 ) ) ;
#77 = PLANE ( 'NONE',  #226 ) ;
#78 = ORIENTED_EDGE ( 'NONE', *, *, #333, .T. ) ;
#79 = ORIENTED_EDGE ( 'NONE', *, *, #300, .F. ) ;
#80 = PLANE ( 'NONE',  #260 ) ;
#81 = PLANE ( 'NONE',  #215 ) ;
#82 = ORIENTED_EDGE ( 'NONE', *, *, #300, .T. ) ;
#83 =( GEOMETRIC_REPRESENTATION_CONTEXT ( 3 ) GLOBAL_UNCERTAINTY_ASSIGNED_CONTEXT ( ( #10 ) ) GLOBAL_UNIT_ASSIGNED_CONTEXT ( ( #314, #75, #224 ) ) REPRESENTATION_CONTEXT ( 'NONE', 'WORKASPACE' ) );
#84 = MECHANICAL_DESIGN_GEOMETRIC_PRESENTATION_REPRESENTATION (  '', ( #139 ), #83 ) ;
#85 = ORIENTED_EDGE ( 'NONE', *, *, #4, .F. ) ;
#86 = VERTEX_POINT ( 'NONE', #222 ) ;
#87 =( NAMED_UNIT ( * ) SI_UNIT ( $, .STERADIAN. ) SOLID_ANGLE_UNIT ( ) );
#88 =( NAMED_UNIT ( * ) PLANE_ANGLE_UNIT ( ) SI_UNIT ( $, .RADIAN. ) );
#89 = VERTEX_POINT ( 'NONE', #227 ) ;
#90 = EDGE_LOOP ( 'NONE', ( #15, #31, #124, #24 ) ) ;
#91 = DIRECTION ( 'NONE',  ( -0.0000000000000000000, -0.0000000000000000000, -1.000000000000000000 ) ) ;
#92 = DIRECTION ( 'NONE',  ( 0.0000000000000000000, 1.000000000000000000, 0.0000000000000000000 ) ) ;
#93 = ORIENTED_EDGE ( 'NONE', *, *, #294, .F. ) ;
#94 = ORIENTED_EDGE ( 'NONE', *, *, #325, .F. ) ;
#95 = ADVANCED_BREP_SHAPE_REPRESENTATION ( '6158889', ( #202, #55 ), #160 ) ;
#96 = ADVANCED_FACE ( 'NONE', ( #247 ), #225, .F. ) ;
#97 = PLANE ( 'NONE',  #156 ) ;
#98 = CARTESIAN_POINT ( 'NONE',  ( 21.70000000000000300, -13.35000000000000100, 7.000000000000000000 ) ) ;
#99 = ORIENTED_EDGE ( 'NONE', *, *, #14, .T. ) ;
#100 = DIRECTION ( 'NONE',  ( -0.0000000000000000000, -1.000000000000000000, -0.0000000000000000000 ) ) ;
#101 = APPLICATION_CONTEXT ( 'automotive_design' ) ;
#102 = CARTESIAN_POINT ( 'NONE',  ( -21.69999999999999600, 13.34999999999999800, 7.000000000000000000 ) ) ;
#103 = ORIENTED_EDGE ( 'NONE', *, *, #12, .T. ) ;
#104 = ORIENTED_EDGE ( 'NONE', *, *, #330, .F. ) ;
#105 = DIRECTION ( 'NONE',  ( -1.000000000000000000, 0.0000000000000000000, -0.0000000000000000000 ) ) ;
#106 = PRODUCT_CONTEXT ( 'NONE', #40, 'mechanical' ) ;
#107 = DIRECTION ( 'NONE',  ( 0.0000000000000000000, 0.0000000000000000000, -1.000000000000000000 ) ) ;
#108 = DIRECTION ( 'NONE',  ( 1.000000000000000000, 0.0000000000000000000, 0.0000000000000000000 ) ) ;
#109 = CARTESIAN_POINT ( 'NONE',  ( -20.49999999999999600, -13.35000000000000100, -7.000000000000000000 ) ) ;
#110 = VERTEX_POINT ( 'NONE', #221 ) ;
#111 = ORIENTED_EDGE ( 'NONE', *, *, #21, .T. ) ;
#112 =( LENGTH_UNIT ( ) NAMED_UNIT ( * ) SI_UNIT ( .MILLI., .METRE. ) );
#113 = CARTESIAN_POINT ( 'NONE',  ( 0.0000000000000000000, 0.0000000000000000000, 0.0000000000000000000 ) ) ;
#114 = DIRECTION ( 'NONE',  ( 1.000000000000000000, 0.0000000000000000000, 0.0000000000000000000 ) ) ;
#115 = LINE ( 'NONE', #188, #232 ) ;
#116 = CARTESIAN_POINT ( 'NONE',  ( 20.50000000000000400, -13.35000000000000100, 7.000000000000000000 ) ) ;
#117 = VERTEX_POINT ( 'NONE', #180 ) ;
#118 = ORIENTED_EDGE ( 'NONE', *, *, #331, .T. ) ;
#119 = ADVANCED_FACE ( 'NONE', ( #259 ), #179, .T. ) ;
#120 = CARTESIAN_POINT ( 'NONE',  ( -21.69999999999999600, -13.35000000000000100, -7.000000000000000000 ) ) ;
#121 = EDGE_LOOP ( 'NONE', ( #68, #79, #52, #103 ) ) ;
#122 = CARTESIAN_POINT ( 'NONE',  ( -21.69999999999999600, -13.35000000000000100, -7.000000000000000000 ) ) ;
#123 = FILL_AREA_STYLE ('',( #292 ) ) ;
#124 = ORIENTED_EDGE ( 'NONE', *, *, #315, .T. ) ;
#125 = ORIENTED_EDGE ( 'NONE', *, *, #312, .F. ) ;
#126 = LINE ( 'NONE', #164, #295 ) ;
#127 = DIRECTION ( 'NONE',  ( 0.0000000000000000000, 0.0000000000000000000, 1.000000000000000000 ) ) ;
#128 = DIRECTION ( 'NONE',  ( 0.0000000000000000000, 0.0000000000000000000, -1.000000000000000000 ) ) ;
#129 = LINE ( 'NONE', #168, #237 ) ;
#130 = VERTEX_POINT ( 'NONE', #133 ) ;
#131 = PRESENTATION_LAYER_ASSIGNMENT (  '', '', ( #139 ) ) ;
#132 = CARTESIAN_POINT ( 'NONE',  ( -20.49999999999999600, 12.14999999999999700, 7.000000000000000000 ) ) ;
#133 = CARTESIAN_POINT ( 'NONE',  ( 21.70000000000000300, -13.35000000000000100, 7.000000000000000000 ) ) ;
#134 = VERTEX_POINT ( 'NONE', #132 ) ;
#135 = ORIENTED_EDGE ( 'NONE', *, *, #14, .F. ) ;
#136 = ORIENTED_EDGE ( 'NONE', *, *, #12, .F. ) ;
#137 = VERTEX_POINT ( 'NONE', #281 ) ;
#138 = ORIENTED_EDGE ( 'NONE', *, *, #19, .T. ) ;
#139 = STYLED_ITEM ( 'NONE', ( #301 ), #95 ) ;
#140 = DIRECTION ( 'NONE',  ( -1.000000000000000000, -0.0000000000000000000, -0.0000000000000000000 ) ) ;
#141 = ORIENTED_EDGE ( 'NONE', *, *, #307, .T. ) ;
#142 = ORIENTED_EDGE ( 'NONE', *, *, #6, .T. ) ;
#143 = LINE ( 'NONE', #258, #183 ) ;
#144 = CARTESIAN_POINT ( 'NONE',  ( 20.50000000000000400, -13.35000000000000100, 7.000000000000000000 ) ) ;
#145 = CARTESIAN_POINT ( 'NONE',  ( -21.69999999999999600, -13.35000000000000100, 7.000000000000000000 ) ) ;
#146 = EDGE_LOOP ( 'NONE', ( #214, #248, #65, #26, #78, #47, #182, #58 ) ) ;
#147 = PRODUCT ( '6158889', '6158889', '', ( #106 ) ) ;
#148 = ADVANCED_FACE ( 'NONE', ( #291 ), #150, .F. ) ;
#149 = ORIENTED_EDGE ( 'NONE', *, *, #6, .F. ) ;
#150 = PLANE ( 'NONE',  #235 ) ;
#151 = DIRECTION ( 'NONE',  ( -1.000000000000000000, 0.0000000000000000000, -0.0000000000000000000 ) ) ;
#152 = LINE ( 'NONE', #200, #2 ) ;
#153 = VECTOR ( 'NONE', #66, 1000.000000000000000 ) ;
#154 = DIRECTION ( 'NONE',  ( 0.0000000000000000000, 0.0000000000000000000, -1.000000000000000000 ) ) ;
#155 = DIRECTION ( 'NONE',  ( 0.0000000000000000000, -1.000000000000000000, 0.0000000000000000000 ) ) ;
#156 = AXIS2_PLACEMENT_3D ( 'NONE', #144, #263, #238 ) ;
#157 = VECTOR ( 'NONE', #100, 1000.000000000000000 ) ;
#158 = LINE ( 'NONE', #191, #284 ) ;
#159 = LINE ( 'NONE', #192, #283 ) ;
#160 =( GEOMETRIC_REPRESENTATION_CONTEXT ( 3 ) GLOBAL_UNCERTAINTY_ASSIGNED_CONTEXT ( ( #176 ) ) GLOBAL_UNIT_ASSIGNED_CONTEXT ( ( #112, #88, #87 ) ) REPRESENTATION_CONTEXT ( 'NONE', 'WORKASPACE' ) );
#161 = VECTOR ( 'NONE', #92, 1000.000000000000000 ) ;
#162 = VECTOR ( 'NONE', #20, 1000.000000000000000 ) ;
#163 = LINE ( 'NONE', #255, #189 ) ;
#164 = CARTESIAN_POINT ( 'NONE',  ( -21.69999999999999600, -13.35000000000000100, 7.000000000000000000 ) ) ;
#165 = DIRECTION ( 'NONE',  ( -0.0000000000000000000, -1.000000000000000000, -0.0000000000000000000 ) ) ;
#166 = VECTOR ( 'NONE', #313, 1000.000000000000000 ) ;
#167 = DIRECTION ( 'NONE',  ( 0.0000000000000000000, 1.000000000000000000, 0.0000000000000000000 ) ) ;
#168 = CARTESIAN_POINT ( 'NONE',  ( 21.70000000000000300, 13.34999999999999800, 7.000000000000000000 ) ) ;
#169 = LINE ( 'NONE', #120, #157 ) ;
#170 = LINE ( 'NONE', #98, #161 ) ;
#171 = ADVANCED_FACE ( 'NONE', ( #243 ), #77, .F. ) ;
#172 = AXIS2_PLACEMENT_3D ( 'NONE', #45, #44, #321 ) ;
#173 = DIRECTION ( 'NONE',  ( 0.0000000000000000000, -1.000000000000000000, 0.0000000000000000000 ) ) ;
#174 = ADVANCED_FACE ( 'NONE', ( #271 ), #81, .F. ) ;
#175 = CARTESIAN_POINT ( 'NONE',  ( -21.69999999999999600, 13.34999999999999800, -7.000000000000000000 ) ) ;
#176 = UNCERTAINTY_MEASURE_WITH_UNIT (LENGTH_MEASURE( 1.000000000000000100E-005 ), #112, 'distance_accuracy_value', 'NONE');
#177 = LINE ( 'NONE', #213, #210 ) ;
#178 = CARTESIAN_POINT ( 'NONE',  ( 0.0000000000000000000, 0.0000000000000000000, -7.000000000000000000 ) ) ;
#179 = PLANE ( 'NONE',  #239 ) ;
#180 = CARTESIAN_POINT ( 'NONE',  ( -20.49999999999999600, -13.35000000000000100, 7.000000000000000000 ) ) ;
#181 = CARTESIAN_POINT ( 'NONE',  ( 0.0000000000000000000, 0.0000000000000000000, 7.000000000000000000 ) ) ;
#182 = ORIENTED_EDGE ( 'NONE', *, *, #315, .F. ) ;
#183 = VECTOR ( 'NONE', #62, 1000.000000000000000 ) ;
#184 = UNCERTAINTY_MEASURE_WITH_UNIT (LENGTH_MEASURE( 1.000000000000000100E-005 ), #270, 'distance_accuracy_value', 'NONE');
#185 = FACE_OUTER_BOUND ( 'NONE', #229, .T. ) ;
#186 =( GEOMETRIC_REPRESENTATION_CONTEXT ( 3 ) GLOBAL_UNCERTAINTY_ASSIGNED_CONTEXT ( ( #184 ) ) GLOBAL_UNIT_ASSIGNED_CONTEXT ( ( #270, #265, #240 ) ) REPRESENTATION_CONTEXT ( 'NONE', 'WORKASPACE' ) );
#187 = EDGE_LOOP ( 'NONE', ( #9, #99, #69, #251 ) ) ;
#188 = CARTESIAN_POINT ( 'NONE',  ( -21.69999999999999600, -13.35000000000000100, 7.000000000000000000 ) ) ;
#189 = VECTOR ( 'NONE', #231, 1000.000000000000000 ) ;
#190 = CARTESIAN_POINT ( 'NONE',  ( -21.69999999999999600, 13.34999999999999800, -7.000000000000000000 ) ) ;
#191 = CARTESIAN_POINT ( 'NONE',  ( -21.69999999999999600, -13.35000000000000100, -7.000000000000000000 ) ) ;
#192 = CARTESIAN_POINT ( 'NONE',  ( -20.49999999999999600, -13.35000000000000100, 7.000000000000000000 ) ) ;
#193 = MECHANICAL_DESIGN_GEOMETRIC_PRESENTATION_REPRESENTATION (  '', ( #212 ), #186 ) ;
#194 = LINE ( 'NONE', #61, #166 ) ;
#195 = ADVANCED_FACE ( 'NONE', ( #266 ), #297, .T. ) ;
#196 = PRESENTATION_LAYER_ASSIGNMENT (  '', '', ( #212 ) ) ;
#197 = DIRECTION ( 'NONE',  ( 1.000000000000000000, 0.0000000000000000000, 0.0000000000000000000 ) ) ;
#198 = DIRECTION ( 'NONE',  ( 1.000000000000000000, 0.0000000000000000000, 0.0000000000000000000 ) ) ;
#199 = CARTESIAN_POINT ( 'NONE',  ( -21.69999999999999600, -13.35000000000000100, 7.000000000000000000 ) ) ;
#200 = CARTESIAN_POINT ( 'NONE',  ( -21.69999999999999600, -13.35000000000000100, -7.000000000000000000 ) ) ;
#201 = LINE ( 'NONE', #199, #288 ) ;
#202 = MANIFOLD_SOLID_BREP ( 'Shell3', #28 ) ;
#203 = DIRECTION ( 'NONE',  ( 0.0000000000000000000, 0.0000000000000000000, 1.000000000000000000 ) ) ;
#204 = VECTOR ( 'NONE', #268, 1000.000000000000000 ) ;
#205 = DIRECTION ( 'NONE',  ( 0.0000000000000000000, 0.0000000000000000000, -1.000000000000000000 ) ) ;
#206 = DIRECTION ( 'NONE',  ( -1.000000000000000000, 0.0000000000000000000, 0.0000000000000000000 ) ) ;
#207 = LINE ( 'NONE', #70, #153 ) ;
#208 = LINE ( 'NONE', #49, #162 ) ;
#209 = AXIS2_PLACEMENT_3D ( 'NONE', #48, #198, #273 ) ;
#210 = VECTOR ( 'NONE', #167, 1000.000000000000000 ) ;
#211 = DIRECTION ( 'NONE',  ( 0.0000000000000000000, 1.000000000000000000, 0.0000000000000000000 ) ) ;
#212 = STYLED_ITEM ( 'NONE', ( #309 ), #202 ) ;
#213 = CARTESIAN_POINT ( 'NONE',  ( 20.50000000000000400, 0.0000000000000000000, -7.000000000000000000 ) ) ;
#214 = ORIENTED_EDGE ( 'NONE', *, *, #331, .F. ) ;
#215 = AXIS2_PLACEMENT_3D ( 'NONE', #76, #33, #29 ) ;
#216 = ORIENTED_EDGE ( 'NONE', *, *, #19, .F. ) ;
#217 = CARTESIAN_POINT ( 'NONE',  ( -20.49999999999999600, 0.0000000000000000000, -7.000000000000000000 ) ) ;
#218 = CARTESIAN_POINT ( 'NONE',  ( -21.69999999999999600, -13.35000000000000100, 7.000000000000000000 ) ) ;
#219 = COLOUR_RGB ( '',0.7529411764705882200, 0.7529411764705882200, 0.7529411764705882200 ) ;
#220 = PLANE ( 'NONE',  #172 ) ;
#221 = CARTESIAN_POINT ( 'NONE',  ( -21.69999999999999600, 13.34999999999999800, 7.000000000000000000 ) ) ;
#222 = CARTESIAN_POINT ( 'NONE',  ( 21.70000000000000300, -13.35000000000000100, -7.000000000000000000 ) ) ;
#223 = VECTOR ( 'NONE', #173, 1000.000000000000000 ) ;
#224 =( NAMED_UNIT ( * ) SI_UNIT ( $, .STERADIAN. ) SOLID_ANGLE_UNIT ( ) );
#225 = PLANE ( 'NONE',  #241 ) ;
#226 = AXIS2_PLACEMENT_3D ( 'NONE', #102, #155, #53 ) ;
#227 = CARTESIAN_POINT ( 'NONE',  ( 20.50000000000000400, 12.14999999999999700, -7.000000000000000000 ) ) ;
#228 = ORIENTED_EDGE ( 'NONE', *, *, #3, .F. ) ;
#229 = EDGE_LOOP ( 'NONE', ( #228, #135, #118, #138 ) ) ;
#230 = CARTESIAN_POINT ( 'NONE',  ( 20.50000000000000400, -13.35000000000000100, -7.000000000000000000 ) ) ;
#231 = DIRECTION ( 'NONE',  ( -1.000000000000000000, 0.0000000000000000000, 0.0000000000000000000 ) ) ;
#232 = VECTOR ( 'NONE', #165, 1000.000000000000000 ) ;
#233 = PRODUCT_DEFINITION_CONTEXT ( 'detailed design', #101, 'design' ) ;
#234 = CARTESIAN_POINT ( 'NONE',  ( 20.50000000000000400, 0.0000000000000000000, 7.000000000000000000 ) ) ;
#235 = AXIS2_PLACEMENT_3D ( 'NONE', #181, #107, #105 ) ;
#236 = VECTOR ( 'NONE', #211, 1000.000000000000000 ) ;
#237 = VECTOR ( 'NONE', #91, 1000.000000000000000 ) ;
#238 = DIRECTION ( 'NONE',  ( 0.0000000000000000000, 0.0000000000000000000, 1.000000000000000000 ) ) ;
#239 = AXIS2_PLACEMENT_3D ( 'NONE', #178, #154, #151 ) ;
#240 =( NAMED_UNIT ( * ) SI_UNIT ( $, .STERADIAN. ) SOLID_ANGLE_UNIT ( ) );
#241 = AXIS2_PLACEMENT_3D ( 'NONE', #332, #206, #203 ) ;
#242 = LINE ( 'NONE', #217, #223 ) ;
#243 = FACE_OUTER_BOUND ( 'NONE', #318, .T. ) ;
#244 = DIRECTION ( 'NONE',  ( 0.0000000000000000000, 0.0000000000000000000, -1.000000000000000000 ) ) ;
#245 = CARTESIAN_POINT ( 'NONE',  ( -20.49999999999999600, 12.14999999999999700, 7.000000000000000000 ) ) ;
#246 = DIRECTION ( 'NONE',  ( 1.000000000000000000, 0.0000000000000000000, 0.0000000000000000000 ) ) ;
#247 = FACE_OUTER_BOUND ( 'NONE', #72, .T. ) ;
#248 = ORIENTED_EDGE ( 'NONE', *, *, #334, .T. ) ;
#249 = PLANE ( 'NONE',  #252 ) ;
#250 = SURFACE_STYLE_FILL_AREA ( #123 ) ;
#251 = ORIENTED_EDGE ( 'NONE', *, *, #35, .F. ) ;
#252 = AXIS2_PLACEMENT_3D ( 'NONE', #282, #246, #244 ) ;
#253 = CARTESIAN_POINT ( 'NONE',  ( 0.0000000000000000000, 12.14999999999999700, -7.000000000000000000 ) ) ;
#254 = EDGE_LOOP ( 'NONE', ( #85, #93, #82, #30 ) ) ;
#255 = CARTESIAN_POINT ( 'NONE',  ( 0.0000000000000000000, 12.14999999999999700, 7.000000000000000000 ) ) ;
#256 = VERTEX_POINT ( 'NONE', #145 ) ;
#257 = DIRECTION ( 'NONE',  ( 0.0000000000000000000, 0.0000000000000000000, -1.000000000000000000 ) ) ;
#258 = CARTESIAN_POINT ( 'NONE',  ( -21.69999999999999600, 13.34999999999999800, 7.000000000000000000 ) ) ;
#259 = FACE_OUTER_BOUND ( 'NONE', #296, .T. ) ;
#260 = AXIS2_PLACEMENT_3D ( 'NONE', #324, #306, #305 ) ;
#261 = VERTEX_POINT ( 'NONE', #122 ) ;
#262 = FACE_OUTER_BOUND ( 'NONE', #32, .T. ) ;
#263 = DIRECTION ( 'NONE',  ( -1.000000000000000000, 0.0000000000000000000, 0.0000000000000000000 ) ) ;
#264 = ADVANCED_FACE ( 'NONE', ( #262 ), #220, .T. ) ;
#265 =( NAMED_UNIT ( * ) PLANE_ANGLE_UNIT ( ) SI_UNIT ( $, .RADIAN. ) );
#266 = FACE_OUTER_BOUND ( 'NONE', #90, .T. ) ;
#267 = PRODUCT_RELATED_PRODUCT_CATEGORY ( 'part', '', ( #147 ) ) ;
#268 = DIRECTION ( 'NONE',  ( -0.0000000000000000000, -0.0000000000000000000, -1.000000000000000000 ) ) ;
#269 = ADVANCED_FACE ( 'NONE', ( #185 ), #97, .T. ) ;
#270 =( LENGTH_UNIT ( ) NAMED_UNIT ( * ) SI_UNIT ( .MILLI., .METRE. ) );
#271 = FACE_OUTER_BOUND ( 'NONE', #187, .T. ) ;
#272 = VECTOR ( 'NONE', #128, 1000.000000000000000 ) ;
#273 = DIRECTION ( 'NONE',  ( 0.0000000000000000000, 0.0000000000000000000, -1.000000000000000000 ) ) ;
#274 = COLOUR_RGB ( '',0.7529411764705882200, 0.7529411764705882200, 0.7529411764705882200 ) ;
#275 = PRODUCT_DEFINITION_FORMATION_WITH_SPECIFIED_SOURCE ( 'ANY', '', #147, .NOT_KNOWN. ) ;
#276 = CARTESIAN_POINT ( 'NONE',  ( -20.49999999999999600, 12.14999999999999700, -7.000000000000000000 ) ) ;
#277 = DIRECTION ( 'NONE',  ( -0.0000000000000000000, -0.0000000000000000000, -1.000000000000000000 ) ) ;
#278 = FACE_OUTER_BOUND ( 'NONE', #121, .T. ) ;
#279 = FACE_OUTER_BOUND ( 'NONE', #254, .T. ) ;
#280 = CARTESIAN_POINT ( 'NONE',  ( 21.70000000000000300, 13.34999999999999800, 7.000000000000000000 ) ) ;
#281 = CARTESIAN_POINT ( 'NONE',  ( 21.70000000000000300, 13.34999999999999800, -7.000000000000000000 ) ) ;
#282 = CARTESIAN_POINT ( 'NONE',  ( -21.69999999999999600, -13.35000000000000100, 7.000000000000000000 ) ) ;
#283 = VECTOR ( 'NONE', #18, 1000.000000000000000 ) ;
#284 = VECTOR ( 'NONE', #289, 1000.000000000000000 ) ;
#285 = VECTOR ( 'NONE', #140, 1000.000000000000000 ) ;
#286 = VECTOR ( 'NONE', #257, 1000.000000000000000 ) ;
#287 = LINE ( 'NONE', #234, #236 ) ;
#288 = VECTOR ( 'NONE', #197, 1000.000000000000000 ) ;
#289 = DIRECTION ( 'NONE',  ( 1.000000000000000000, 0.0000000000000000000, 0.0000000000000000000 ) ) ;
#290 = DIRECTION ( 'NONE',  ( -1.000000000000000000, 0.0000000000000000000, 0.0000000000000000000 ) ) ;
#291 = FACE_OUTER_BOUND ( 'NONE', #146, .T. ) ;
#292 = FILL_AREA_STYLE_COLOUR ( '', #274 ) ;
#293 = LINE ( 'NONE', #41, #272 ) ;
#294 = EDGE_CURVE ( 'NONE', #256, #117, #201, .T. ) ;
#295 = VECTOR ( 'NONE', #114, 1000.000000000000000 ) ;
#296 = EDGE_LOOP ( 'NONE', ( #50, #57, #329, #141, #104, #73, #71, #94 ) ) ;
#297 = PLANE ( 'NONE',  #209 ) ;
#298 = SURFACE_STYLE_FILL_AREA ( #38 ) ;
#299 = LINE ( 'NONE', #190, #285 ) ;
#300 = EDGE_CURVE ( 'NONE', #256, #261, #308, .T. ) ;
#301 = PRESENTATION_STYLE_ASSIGNMENT (( #8 ) ) ;
#302 = LINE ( 'NONE', #63, #328 ) ;
#303 = LINE ( 'NONE', #245, #64 ) ;
#304 = CARTESIAN_POINT ( 'NONE',  ( 20.50000000000000400, -13.35000000000000100, 7.000000000000000000 ) ) ;
#305 = DIRECTION ( 'NONE',  ( 0.0000000000000000000, -0.0000000000000000000, 1.000000000000000000 ) ) ;
#306 = DIRECTION ( 'NONE',  ( 0.0000000000000000000, 1.000000000000000000, 0.0000000000000000000 ) ) ;
#307 = EDGE_CURVE ( 'NONE', #16, #23, #242, .T. ) ;
#308 = LINE ( 'NONE', #218, #204 ) ;
#309 = PRESENTATION_STYLE_ASSIGNMENT (( #320 ) ) ;
#310 = EDGE_CURVE ( 'NONE', #317, #261, #169, .T. ) ;
#311 = EDGE_CURVE ( 'NONE', #130, #51, #170, .T. ) ;
#312 = EDGE_CURVE ( 'NONE', #51, #110, #207, .T. ) ;
#313 = DIRECTION ( 'NONE',  ( 0.0000000000000000000, 1.000000000000000000, 0.0000000000000000000 ) ) ;
#314 =( LENGTH_UNIT ( ) NAMED_UNIT ( * ) SI_UNIT ( .MILLI., .METRE. ) );
#315 = EDGE_CURVE ( 'NONE', #134, #117, #208, .T. ) ;
#316 = EDGE_CURVE ( 'NONE', #36, #134, #163, .T. ) ;
#317 = VERTEX_POINT ( 'NONE', #175 ) ;
#318 = EDGE_LOOP ( 'NONE', ( #22, #136, #125, #142 ) ) ;
#319 = VERTEX_POINT ( 'NONE', #230 ) ;
#320 = SURFACE_STYLE_USAGE ( .BOTH. , #27 ) ;
#321 = DIRECTION ( 'NONE',  ( 0.0000000000000000000, -0.0000000000000000000, -1.000000000000000000 ) ) ;
#322 = ORIENTED_EDGE ( 'NONE', *, *, #311, .F. ) ;
#323 = EDGE_CURVE ( 'NONE', #319, #86, #152, .T. ) ;
#324 = CARTESIAN_POINT ( 'NONE',  ( -21.69999999999999600, -13.35000000000000100, 7.000000000000000000 ) ) ;
#325 = EDGE_CURVE ( 'NONE', #86, #137, #194, .T. ) ;
#326 = EDGE_CURVE ( 'NONE', #89, #16, #7, .T. ) ;
#327 = CARTESIAN_POINT ( 'NONE',  ( 20.50000000000000400, 12.14999999999999700, 7.000000000000000000 ) ) ;
#328 = VECTOR ( 'NONE', #277, 1000.000000000000000 ) ;
#329 = ORIENTED_EDGE ( 'NONE', *, *, #326, .T. ) ;
#330 = EDGE_CURVE ( 'NONE', #261, #23, #158, .T. ) ;
#331 = EDGE_CURVE ( 'NONE', #56, #36, #287, .T. ) ;
#332 = CARTESIAN_POINT ( 'NONE',  ( 21.70000000000000300, -13.35000000000000100, 7.000000000000000000 ) ) ;
#333 = EDGE_CURVE ( 'NONE', #110, #256, #115, .T. ) ;
#334 = EDGE_CURVE ( 'NONE', #56, #130, #126, .T. ) ;
ENDSEC;
END-ISO-10303-21;
