ISO-10303-21;
HEADER;
FILE_DESCRIPTION (( 'STEP AP214' ),
    '1' );
FILE_NAME ('6193501.STEP',
    '2016-06-29T06:34:12',
    ( '' ),
    ( '' ),
    'SwSTEP 2.0',
    'SolidWorks 2014',
    '' );
FILE_SCHEMA (( 'AUTOMOTIVE_DESIGN' ));
ENDSEC;

DATA;
#1 = AXIS2_PLACEMENT_3D ( 'NONE', #89, #316, #162 ) ;
#2 = DIRECTION ( 'NONE',  ( 0.01867393750937520700, 0.9998256268259461100, 0.0000000000000000000 ) ) ;
#3 = SURFACE_SIDE_STYLE ('',( #300 ) ) ;
#4 = FACE_OUTER_BOUND ( 'NONE', #6, .T. ) ;
#5 = EDGE_LOOP ( 'NONE', ( #318, #293, #127, #199 ) ) ;
#6 = EDGE_LOOP ( 'NONE', ( #20, #272, #183, #208, #152, #251, #65, #93 ) ) ;
#7 = EDGE_CURVE ( 'NONE', #223, #61, #174, .T. ) ;
#8 = CARTESIAN_POINT ( 'NONE',  ( -16.64999999999999900, 9.349999999999999600, 7.000000000000000000 ) ) ;
#9 = VECTOR ( 'NONE', #104, 1000.000000000000100 ) ;
#10 = AXIS2_PLACEMENT_3D ( 'NONE', #226, #153, #334 ) ;
#11 = PLANE ( 'NONE',  #106 ) ;
#12 = CARTESIAN_POINT ( 'NONE',  ( -16.64999999999999900, -9.349999999999999600, 7.000000000000000000 ) ) ;
#13 = ORIENTED_EDGE ( 'NONE', *, *, #43, .F. ) ;
#14 = DIRECTION ( 'NONE',  ( 0.0000000000000000000, 0.0000000000000000000, -1.000000000000000000 ) ) ;
#15 = DIRECTION ( 'NONE',  ( -1.000000000000000000, 0.0000000000000000000, 0.0000000000000000000 ) ) ;
#16 = PRESENTATION_LAYER_ASSIGNMENT (  '', '', ( #315 ) ) ;
#17 = DIRECTION ( 'NONE',  ( 0.0000000000000000000, -0.0000000000000000000, -1.000000000000000000 ) ) ;
#18 = FACE_OUTER_BOUND ( 'NONE', #256, .T. ) ;
#19 = DIRECTION ( 'NONE',  ( 0.01867393750937520700, -0.9998256268259461100, -0.0000000000000000000 ) ) ;
#20 = ORIENTED_EDGE ( 'NONE', *, *, #305, .F. ) ;
#21 = ORIENTED_EDGE ( 'NONE', *, *, #177, .F. ) ;
#22 = CLOSED_SHELL ( 'NONE', ( #148, #297, #169, #45, #196, #249, #71, #325, #275, #98 ) ) ;
#23 = DIRECTION ( 'NONE',  ( -0.0000000000000000000, -0.0000000000000000000, -1.000000000000000000 ) ) ;
#24 = EDGE_CURVE ( 'NONE', #61, #58, #303, .T. ) ;
#25 = DIRECTION ( 'NONE',  ( -1.000000000000000000, -0.0000000000000000000, -0.0000000000000000000 ) ) ;
#26 = PLANE ( 'NONE',  #49 ) ;
#27 = CARTESIAN_POINT ( 'NONE',  ( 16.30073646638374600, -9.349999999999999600, -7.000000000000000000 ) ) ;
#28 = LINE ( 'NONE', #201, #221 ) ;
#29 =( LENGTH_UNIT ( ) NAMED_UNIT ( * ) SI_UNIT ( .MILLI., .METRE. ) );
#30 =( GEOMETRIC_REPRESENTATION_CONTEXT ( 3 ) GLOBAL_UNCERTAINTY_ASSIGNED_CONTEXT ( ( #74 ) ) GLOBAL_UNIT_ASSIGNED_CONTEXT ( ( #229, #81, #259 ) ) REPRESENTATION_CONTEXT ( 'NONE', 'WORKASPACE' ) );
#31 = ORIENTED_EDGE ( 'NONE', *, *, #236, .T. ) ;
#32 = ORIENTED_EDGE ( 'NONE', *, *, #247, .T. ) ;
#33 = COLOUR_RGB ( '',0.7529411764705882200, 0.7529411764705882200, 0.7529411764705882200 ) ;
#34 = MECHANICAL_DESIGN_GEOMETRIC_PRESENTATION_REPRESENTATION (  '', ( #315 ), #56 ) ;
#35 = VECTOR ( 'NONE', #15, 1000.000000000000000 ) ;
#36 = CARTESIAN_POINT ( 'NONE',  ( -16.64999999999999900, 9.349999999999999600, 7.000000000000000000 ) ) ;
#37 = SURFACE_SIDE_STYLE ('',( #158 ) ) ;
#38 = DIRECTION ( 'NONE',  ( -0.9998256268259461100, -0.01867393750937520700, 0.0000000000000000000 ) ) ;
#39 = ORIENTED_EDGE ( 'NONE', *, *, #227, .F. ) ;
#40 = ORIENTED_EDGE ( 'NONE', *, *, #288, .T. ) ;
#41 = LINE ( 'NONE', #267, #103 ) ;
#42 = CARTESIAN_POINT ( 'NONE',  ( -15.10052718208131100, -9.349999999999999600, 7.000000000000000000 ) ) ;
#43 = EDGE_CURVE ( 'NONE', #223, #332, #41, .T. ) ;
#44 = CARTESIAN_POINT ( 'NONE',  ( 15.10052718208131100, -9.349999999999999600, 7.000000000000000000 ) ) ;
#45 = ADVANCED_FACE ( 'NONE', ( #166 ), #140, .T. ) ;
#46 = FACE_OUTER_BOUND ( 'NONE', #224, .T. ) ;
#47 = MANIFOLD_SOLID_BREP ( 'Shell3', #22 ) ;
#48 = CARTESIAN_POINT ( 'NONE',  ( -15.10052718208131100, -9.349999999999999600, -7.000000000000000000 ) ) ;
#49 = AXIS2_PLACEMENT_3D ( 'NONE', #178, #154, #2 ) ;
#50 = ORIENTED_EDGE ( 'NONE', *, *, #197, .F. ) ;
#51 = ORIENTED_EDGE ( 'NONE', *, *, #159, .F. ) ;
#52 = CARTESIAN_POINT ( 'NONE',  ( -16.64999999999999900, -9.349999999999999600, -7.000000000000000000 ) ) ;
#53 = UNCERTAINTY_MEASURE_WITH_UNIT (LENGTH_MEASURE( 1.000000000000000100E-005 ), #29, 'distance_accuracy_value', 'NONE');
#54 = CARTESIAN_POINT ( 'NONE',  ( 16.46962300963692600, -0.3076063491803936500, -7.000000000000000000 ) ) ;
#55 = VECTOR ( 'NONE', #216, 1000.000000000000100 ) ;
#56 =( GEOMETRIC_REPRESENTATION_CONTEXT ( 3 ) GLOBAL_UNCERTAINTY_ASSIGNED_CONTEXT ( ( #220 ) ) GLOBAL_UNIT_ASSIGNED_CONTEXT ( ( #63, #240, #91 ) ) REPRESENTATION_CONTEXT ( 'NONE', 'WORKASPACE' ) );
#57 =( NAMED_UNIT ( * ) SI_UNIT ( $, .STERADIAN. ) SOLID_ANGLE_UNIT ( ) );
#58 = VERTEX_POINT ( 'NONE', #8 ) ;
#59 = ORIENTED_EDGE ( 'NONE', *, *, #128, .T. ) ;
#60 = EDGE_CURVE ( 'NONE', #58, #77, #273, .T. ) ;
#61 = VERTEX_POINT ( 'NONE', #317 ) ;
#62 = LINE ( 'NONE', #143, #326 ) ;
#63 =( LENGTH_UNIT ( ) NAMED_UNIT ( * ) SI_UNIT ( .MILLI., .METRE. ) );
#64 = VECTOR ( 'NONE', #228, 1000.000000000000100 ) ;
#65 = ORIENTED_EDGE ( 'NONE', *, *, #97, .F. ) ;
#66 = DIRECTION ( 'NONE',  ( 0.0000000000000000000, -0.0000000000000000000, 1.000000000000000000 ) ) ;
#67 = CARTESIAN_POINT ( 'NONE',  ( 0.0000000000000000000, 8.149999999999998600, 7.000000000000000000 ) ) ;
#68 = PLANE ( 'NONE',  #171 ) ;
#69 = ORIENTED_EDGE ( 'NONE', *, *, #78, .F. ) ;
#70 = VECTOR ( 'NONE', #292, 1000.000000000000000 ) ;
#71 = ADVANCED_FACE ( 'NONE', ( #136 ), #11, .F. ) ;
#72 = CARTESIAN_POINT ( 'NONE',  ( -16.30073646638374300, -9.349999999999999600, 7.000000000000000000 ) ) ;
#73 = VECTOR ( 'NONE', #79, 1000.000000000000000 ) ;
#74 = UNCERTAINTY_MEASURE_WITH_UNIT (LENGTH_MEASURE( 1.000000000000000100E-005 ), #229, 'distance_accuracy_value', 'NONE');
#75 = DIRECTION ( 'NONE',  ( 0.01867393750937520700, -0.9998256268259461100, -0.0000000000000000000 ) ) ;
#76 = CARTESIAN_POINT ( 'NONE',  ( -16.64999999999999900, -9.349999999999999600, 7.000000000000000000 ) ) ;
#77 = VERTEX_POINT ( 'NONE', #113 ) ;
#78 = EDGE_CURVE ( 'NONE', #172, #299, #295, .T. ) ;
#79 = DIRECTION ( 'NONE',  ( 1.000000000000000000, 0.0000000000000000000, 0.0000000000000000000 ) ) ;
#80 = CARTESIAN_POINT ( 'NONE',  ( 15.10052718208131100, -9.349999999999999600, -7.000000000000000000 ) ) ;
#81 =( NAMED_UNIT ( * ) PLANE_ANGLE_UNIT ( ) SI_UNIT ( $, .RADIAN. ) );
#82 = DIRECTION ( 'NONE',  ( 0.0000000000000000000, 0.0000000000000000000, 1.000000000000000000 ) ) ;
#83 = FACE_OUTER_BOUND ( 'NONE', #5, .T. ) ;
#84 = ORIENTED_EDGE ( 'NONE', *, *, #60, .F. ) ;
#85 = STYLED_ITEM ( 'NONE', ( #233 ), #302 ) ;
#86 = ORIENTED_EDGE ( 'NONE', *, *, #7, .F. ) ;
#87 = SHAPE_DEFINITION_REPRESENTATION ( #137, #302 ) ;
#88 = DIRECTION ( 'NONE',  ( 0.0000000000000000000, -0.0000000000000000000, -1.000000000000000000 ) ) ;
#89 = CARTESIAN_POINT ( 'NONE',  ( 16.64999999999999900, 9.349999999999999600, 7.000000000000000000 ) ) ;
#90 = VECTOR ( 'NONE', #304, 1000.000000000000000 ) ;
#91 =( NAMED_UNIT ( * ) SI_UNIT ( $, .STERADIAN. ) SOLID_ANGLE_UNIT ( ) );
#92 = CARTESIAN_POINT ( 'NONE',  ( -16.64999999999999900, 9.349999999999999600, 7.000000000000000000 ) ) ;
#93 = ORIENTED_EDGE ( 'NONE', *, *, #111, .F. ) ;
#94 = PRESENTATION_STYLE_ASSIGNMENT (( #212 ) ) ;
#95 = DIRECTION ( 'NONE',  ( 0.0000000000000000000, -0.0000000000000000000, 1.000000000000000000 ) ) ;
#96 = DIRECTION ( 'NONE',  ( -0.0000000000000000000, -0.0000000000000000000, -1.000000000000000000 ) ) ;
#97 = EDGE_CURVE ( 'NONE', #172, #188, #243, .T. ) ;
#98 = ADVANCED_FACE ( 'NONE', ( #264 ), #190, .F. ) ;
#99 = VECTOR ( 'NONE', #222, 1000.000000000000000 ) ;
#100 = PRESENTATION_LAYER_ASSIGNMENT (  '', '', ( #85 ) ) ;
#101 = VERTEX_POINT ( 'NONE', #142 ) ;
#102 = VERTEX_POINT ( 'NONE', #244 ) ;
#103 = VECTOR ( 'NONE', #88, 1000.000000000000000 ) ;
#104 = DIRECTION ( 'NONE',  ( 0.01867393750937520700, 0.9998256268259461100, -0.0000000000000000000 ) ) ;
#105 = LINE ( 'NONE', #150, #230 ) ;
#106 = AXIS2_PLACEMENT_3D ( 'NONE', #187, #213, #66 ) ;
#107 = PRODUCT_CONTEXT ( 'NONE', #310, 'mechanical' ) ;
#108 = ORIENTED_EDGE ( 'NONE', *, *, #265, .F. ) ;
#109 = VECTOR ( 'NONE', #160, 1000.000000000000100 ) ;
#110 = PRODUCT ( '6193501', '6193501', '', ( #107 ) ) ;
#111 = EDGE_CURVE ( 'NONE', #232, #172, #194, .T. ) ;
#112 = LINE ( 'NONE', #92, #309 ) ;
#113 = CARTESIAN_POINT ( 'NONE',  ( -16.30073646638374300, -9.349999999999999600, 7.000000000000000000 ) ) ;
#114 = MECHANICAL_DESIGN_GEOMETRIC_PRESENTATION_REPRESENTATION (  '', ( #85 ), #134 ) ;
#115 = DIRECTION ( 'NONE',  ( 0.01867393750937520700, -0.9998256268259461100, -0.0000000000000000000 ) ) ;
#116 = ORIENTED_EDGE ( 'NONE', *, *, #159, .T. ) ;
#117 = ORIENTED_EDGE ( 'NONE', *, *, #227, .T. ) ;
#118 = PLANE ( 'NONE',  #205 ) ;
#119 = CARTESIAN_POINT ( 'NONE',  ( 15.10052718208131100, -9.349999999999999600, 7.000000000000000000 ) ) ;
#120 = VECTOR ( 'NONE', #167, 1000.000000000000000 ) ;
#121 = COLOUR_RGB ( '',0.7529411764705882200, 0.7529411764705882200, 0.7529411764705882200 ) ;
#122 = ORIENTED_EDGE ( 'NONE', *, *, #265, .T. ) ;
#123 = ORIENTED_EDGE ( 'NONE', *, *, #24, .F. ) ;
#124 = CARTESIAN_POINT ( 'NONE',  ( 16.30073646638374600, -9.349999999999999600, 7.000000000000000000 ) ) ;
#125 = CARTESIAN_POINT ( 'NONE',  ( -16.64999999999999900, 9.349999999999999600, 7.000000000000000000 ) ) ;
#126 = CARTESIAN_POINT ( 'NONE',  ( 16.64999999999999900, 9.349999999999999600, -7.000000000000000000 ) ) ;
#127 = ORIENTED_EDGE ( 'NONE', *, *, #111, .T. ) ;
#128 = EDGE_CURVE ( 'NONE', #232, #101, #62, .T. ) ;
#129 = PLANE ( 'NONE',  #10 ) ;
#130 = VECTOR ( 'NONE', #17, 1000.000000000000000 ) ;
#131 = CARTESIAN_POINT ( 'NONE',  ( -16.30073646638374300, -9.349999999999999600, -7.000000000000000000 ) ) ;
#132 = APPLICATION_PROTOCOL_DEFINITION ( 'draft international standard', 'automotive_design', 1998, #286 ) ;
#133 = ORIENTED_EDGE ( 'NONE', *, *, #271, .T. ) ;
#134 =( GEOMETRIC_REPRESENTATION_CONTEXT ( 3 ) GLOBAL_UNCERTAINTY_ASSIGNED_CONTEXT ( ( #53 ) ) GLOBAL_UNIT_ASSIGNED_CONTEXT ( ( #29, #206, #57 ) ) REPRESENTATION_CONTEXT ( 'NONE', 'WORKASPACE' ) );
#135 = ORIENTED_EDGE ( 'NONE', *, *, #322, .F. ) ;
#136 = FACE_OUTER_BOUND ( 'NONE', #209, .T. ) ;
#137 = PRODUCT_DEFINITION_SHAPE ( 'NONE', 'NONE',  #200 ) ;
#138 = CARTESIAN_POINT ( 'NONE',  ( 16.46962300963692600, -0.3076063491803936500, 7.000000000000000000 ) ) ;
#139 = AXIS2_PLACEMENT_3D ( 'NONE', #241, #38, #215 ) ;
#140 = PLANE ( 'NONE',  #1 ) ;
#141 = CARTESIAN_POINT ( 'NONE',  ( -16.46962300963692600, -0.3076063491803936500, 7.000000000000000000 ) ) ;
#142 = CARTESIAN_POINT ( 'NONE',  ( 15.42737808252433000, 8.149999999999998600, -7.000000000000000000 ) ) ;
#143 = CARTESIAN_POINT ( 'NONE',  ( 15.42737808252433300, 8.149999999999998600, 7.000000000000000000 ) ) ;
#144 = CARTESIAN_POINT ( 'NONE',  ( 0.0000000000000000000, 0.0000000000000000000, -7.000000000000000000 ) ) ;
#145 = ORIENTED_EDGE ( 'NONE', *, *, #210, .T. ) ;
#146 = DIRECTION ( 'NONE',  ( 0.0000000000000000000, -1.000000000000000000, 0.0000000000000000000 ) ) ;
#147 = EDGE_CURVE ( 'NONE', #319, #332, #257, .T. ) ;
#148 = ADVANCED_FACE ( 'NONE', ( #185 ), #68, .F. ) ;
#149 = VECTOR ( 'NONE', #23, 1000.000000000000000 ) ;
#150 = CARTESIAN_POINT ( 'NONE',  ( -15.26983225744578800, -0.2851976241691434000, -7.000000000000000000 ) ) ;
#151 = DIRECTION ( 'NONE',  ( -0.9998256268259461100, -0.01867393750937520700, 0.0000000000000000000 ) ) ;
#152 = ORIENTED_EDGE ( 'NONE', *, *, #60, .T. ) ;
#153 = DIRECTION ( 'NONE',  ( 0.0000000000000000000, 0.0000000000000000000, -1.000000000000000000 ) ) ;
#154 = DIRECTION ( 'NONE',  ( 0.9998256268259461100, -0.01867393750937520700, 0.0000000000000000000 ) ) ;
#155 = FILL_AREA_STYLE ('',( #308 ) ) ;
#156 = LINE ( 'NONE', #173, #149 ) ;
#157 = EDGE_LOOP ( 'NONE', ( #39, #69, #234, #165 ) ) ;
#158 = SURFACE_STYLE_FILL_AREA ( #186 ) ;
#159 = EDGE_CURVE ( 'NONE', #319, #101, #314, .T. ) ;
#160 = DIRECTION ( 'NONE',  ( 0.01867393750937520700, 0.9998256268259461100, -0.0000000000000000000 ) ) ;
#161 = LINE ( 'NONE', #72, #99 ) ;
#162 = DIRECTION ( 'NONE',  ( 0.01867393750937520700, 0.9998256268259461100, 0.0000000000000000000 ) ) ;
#163 = DIRECTION ( 'NONE',  ( 0.01867393750937520700, -0.9998256268259461100, -0.0000000000000000000 ) ) ;
#164 = ORIENTED_EDGE ( 'NONE', *, *, #253, .F. ) ;
#165 = ORIENTED_EDGE ( 'NONE', *, *, #253, .T. ) ;
#166 = FACE_OUTER_BOUND ( 'NONE', #250, .T. ) ;
#167 = DIRECTION ( 'NONE',  ( 1.000000000000000000, 0.0000000000000000000, 0.0000000000000000000 ) ) ;
#168 = CARTESIAN_POINT ( 'NONE',  ( -15.42737808252433000, 8.149999999999998600, 7.000000000000000000 ) ) ;
#169 = ADVANCED_FACE ( 'NONE', ( #179 ), #118, .T. ) ;
#170 = LINE ( 'NONE', #44, #130 ) ;
#171 = AXIS2_PLACEMENT_3D ( 'NONE', #12, #245, #95 ) ;
#172 = VERTEX_POINT ( 'NONE', #168 ) ;
#173 = CARTESIAN_POINT ( 'NONE',  ( 16.64999999999999900, 9.349999999999999600, 7.000000000000000000 ) ) ;
#174 = LINE ( 'NONE', #138, #109 ) ;
#175 = CARTESIAN_POINT ( 'NONE',  ( -15.10052718208131100, -9.349999999999999600, 7.000000000000000000 ) ) ;
#176 = DIRECTION ( 'NONE',  ( 0.0000000000000000000, -0.0000000000000000000, -1.000000000000000000 ) ) ;
#177 = EDGE_CURVE ( 'NONE', #58, #102, #112, .T. ) ;
#178 = CARTESIAN_POINT ( 'NONE',  ( 15.45020924780886200, 9.372408725011249300, 7.000000000000000000 ) ) ;
#179 = FACE_OUTER_BOUND ( 'NONE', #269, .T. ) ;
#180 = CARTESIAN_POINT ( 'NONE',  ( 0.0000000000000000000, 0.0000000000000000000, 0.0000000000000000000 ) ) ;
#181 = SURFACE_STYLE_USAGE ( .BOTH. , #3 ) ;
#182 = AXIS2_PLACEMENT_3D ( 'NONE', #180, #82, #260 ) ;
#183 = ORIENTED_EDGE ( 'NONE', *, *, #7, .T. ) ;
#184 = ORIENTED_EDGE ( 'NONE', *, *, #43, .T. ) ;
#185 = FACE_OUTER_BOUND ( 'NONE', #324, .T. ) ;
#186 = FILL_AREA_STYLE ('',( #266 ) ) ;
#187 = CARTESIAN_POINT ( 'NONE',  ( -16.64999999999999900, -9.349999999999999600, 7.000000000000000000 ) ) ;
#188 = VERTEX_POINT ( 'NONE', #42 ) ;
#189 = ORIENTED_EDGE ( 'NONE', *, *, #147, .F. ) ;
#190 = PLANE ( 'NONE',  #139 ) ;
#191 = CARTESIAN_POINT ( 'NONE',  ( -16.64999999999999900, -9.349999999999999600, -7.000000000000000000 ) ) ;
#192 = DIRECTION ( 'NONE',  ( -1.000000000000000000, 0.0000000000000000000, -0.0000000000000000000 ) ) ;
#193 = ORIENTED_EDGE ( 'NONE', *, *, #219, .F. ) ;
#194 = LINE ( 'NONE', #67, #70 ) ;
#195 = CARTESIAN_POINT ( 'NONE',  ( 0.0000000000000000000, 8.149999999999998600, -7.000000000000000000 ) ) ;
#196 = ADVANCED_FACE ( 'NONE', ( #46 ), #246, .F. ) ;
#197 = EDGE_CURVE ( 'NONE', #217, #319, #170, .T. ) ;
#198 = LINE ( 'NONE', #203, #64 ) ;
#199 = ORIENTED_EDGE ( 'NONE', *, *, #78, .T. ) ;
#200 = PRODUCT_DEFINITION ( 'UNKNOWN', '', #214, #281 ) ;
#201 = CARTESIAN_POINT ( 'NONE',  ( -16.46962300963692600, -0.3076063491803936500, -7.000000000000000000 ) ) ;
#202 = ORIENTED_EDGE ( 'NONE', *, *, #271, .F. ) ;
#203 = CARTESIAN_POINT ( 'NONE',  ( 15.26983225744578800, -0.2851976241691434000, 7.000000000000000000 ) ) ;
#204 = VECTOR ( 'NONE', #163, 1000.000000000000100 ) ;
#205 = AXIS2_PLACEMENT_3D ( 'NONE', #144, #14, #192 ) ;
#206 =( NAMED_UNIT ( * ) PLANE_ANGLE_UNIT ( ) SI_UNIT ( $, .RADIAN. ) );
#207 = LINE ( 'NONE', #76, #73 ) ;
#208 = ORIENTED_EDGE ( 'NONE', *, *, #24, .T. ) ;
#209 = EDGE_LOOP ( 'NONE', ( #135, #242, #262, #13 ) ) ;
#210 = EDGE_CURVE ( 'NONE', #101, #299, #237, .T. ) ;
#211 = LINE ( 'NONE', #54, #9 ) ;
#212 = SURFACE_STYLE_USAGE ( .BOTH. , #37 ) ;
#213 = DIRECTION ( 'NONE',  ( 0.0000000000000000000, 1.000000000000000000, 0.0000000000000000000 ) ) ;
#214 = PRODUCT_DEFINITION_FORMATION_WITH_SPECIFIED_SOURCE ( 'ANY', '', #110, .NOT_KNOWN. ) ;
#215 = DIRECTION ( 'NONE',  ( 0.01867393750937520700, -0.9998256268259461100, 0.0000000000000000000 ) ) ;
#216 = DIRECTION ( 'NONE',  ( 0.01867393750937520700, 0.9998256268259461100, -0.0000000000000000000 ) ) ;
#217 = VERTEX_POINT ( 'NONE', #119 ) ;
#218 = VERTEX_POINT ( 'NONE', #48 ) ;
#219 = EDGE_CURVE ( 'NONE', #77, #328, #161, .T. ) ;
#220 = UNCERTAINTY_MEASURE_WITH_UNIT (LENGTH_MEASURE( 1.000000000000000100E-005 ), #63, 'distance_accuracy_value', 'NONE');
#221 = VECTOR ( 'NONE', #75, 1000.000000000000100 ) ;
#222 = DIRECTION ( 'NONE',  ( -0.0000000000000000000, -0.0000000000000000000, -1.000000000000000000 ) ) ;
#223 = VERTEX_POINT ( 'NONE', #124 ) ;
#224 = EDGE_LOOP ( 'NONE', ( #40, #21, #123, #122 ) ) ;
#225 = VECTOR ( 'NONE', #115, 1000.000000000000100 ) ;
#226 = CARTESIAN_POINT ( 'NONE',  ( 0.0000000000000000000, 0.0000000000000000000, 7.000000000000000000 ) ) ;
#227 = EDGE_CURVE ( 'NONE', #299, #218, #105, .T. ) ;
#228 = DIRECTION ( 'NONE',  ( 0.01867393750937520700, 0.9998256268259461100, -0.0000000000000000000 ) ) ;
#229 =( LENGTH_UNIT ( ) NAMED_UNIT ( * ) SI_UNIT ( .MILLI., .METRE. ) );
#230 = VECTOR ( 'NONE', #19, 1000.000000000000100 ) ;
#231 = PRODUCT_RELATED_PRODUCT_CATEGORY ( 'part', '', ( #110 ) ) ;
#232 = VERTEX_POINT ( 'NONE', #329 ) ;
#233 = PRESENTATION_STYLE_ASSIGNMENT (( #181 ) ) ;
#234 = ORIENTED_EDGE ( 'NONE', *, *, #97, .T. ) ;
#235 = VECTOR ( 'NONE', #238, 1000.000000000000000 ) ;
#236 = EDGE_CURVE ( 'NONE', #102, #328, #28, .T. ) ;
#237 = LINE ( 'NONE', #195, #35 ) ;
#238 = DIRECTION ( 'NONE',  ( -1.000000000000000000, -0.0000000000000000000, -0.0000000000000000000 ) ) ;
#239 = AXIS2_PLACEMENT_3D ( 'NONE', #296, #146, #323 ) ;
#240 =( NAMED_UNIT ( * ) PLANE_ANGLE_UNIT ( ) SI_UNIT ( $, .RADIAN. ) );
#241 = CARTESIAN_POINT ( 'NONE',  ( -15.45020924780886200, 9.372408725011249300, 7.000000000000000000 ) ) ;
#242 = ORIENTED_EDGE ( 'NONE', *, *, #197, .T. ) ;
#243 = LINE ( 'NONE', #320, #225 ) ;
#244 = CARTESIAN_POINT ( 'NONE',  ( -16.64999999999999900, 9.349999999999999600, -7.000000000000000000 ) ) ;
#245 = DIRECTION ( 'NONE',  ( 0.0000000000000000000, 1.000000000000000000, 0.0000000000000000000 ) ) ;
#246 = PLANE ( 'NONE',  #239 ) ;
#247 = EDGE_CURVE ( 'NONE', #328, #218, #289, .T. ) ;
#248 = VECTOR ( 'NONE', #252, 1000.000000000000000 ) ;
#249 = ADVANCED_FACE ( 'NONE', ( #18 ), #278, .T. ) ;
#250 = EDGE_LOOP ( 'NONE', ( #133, #108, #86, #184 ) ) ;
#251 = ORIENTED_EDGE ( 'NONE', *, *, #282, .T. ) ;
#252 = DIRECTION ( 'NONE',  ( 1.000000000000000000, 0.0000000000000000000, 0.0000000000000000000 ) ) ;
#253 = EDGE_CURVE ( 'NONE', #188, #218, #298, .T. ) ;
#254 = CARTESIAN_POINT ( 'NONE',  ( -16.64999999999999900, 8.149999999999998600, 7.000000000000000000 ) ) ;
#255 = CARTESIAN_POINT ( 'NONE',  ( -16.64999999999999900, 9.349999999999999600, -7.000000000000000000 ) ) ;
#256 = EDGE_LOOP ( 'NONE', ( #31, #193, #84, #274 ) ) ;
#257 = LINE ( 'NONE', #191, #120 ) ;
#258 = CARTESIAN_POINT ( 'NONE',  ( -16.64999999999999900, -9.349999999999999600, 7.000000000000000000 ) ) ;
#259 =( NAMED_UNIT ( * ) SI_UNIT ( $, .STERADIAN. ) SOLID_ANGLE_UNIT ( ) );
#260 = DIRECTION ( 'NONE',  ( 1.000000000000000000, 0.0000000000000000000, 0.0000000000000000000 ) ) ;
#261 = VECTOR ( 'NONE', #283, 1000.000000000000000 ) ;
#262 = ORIENTED_EDGE ( 'NONE', *, *, #147, .T. ) ;
#263 = ORIENTED_EDGE ( 'NONE', *, *, #219, .T. ) ;
#264 = FACE_OUTER_BOUND ( 'NONE', #157, .T. ) ;
#265 = EDGE_CURVE ( 'NONE', #61, #279, #156, .T. ) ;
#266 = FILL_AREA_STYLE_COLOUR ( '', #33 ) ;
#267 = CARTESIAN_POINT ( 'NONE',  ( 16.30073646638374300, -9.349999999999999600, 7.000000000000000000 ) ) ;
#268 = LINE ( 'NONE', #258, #261 ) ;
#269 = EDGE_LOOP ( 'NONE', ( #189, #116, #145, #117, #313, #294, #307, #202 ) ) ;
#270 = CARTESIAN_POINT ( 'NONE',  ( 15.26983225744578800, -0.2851976241691434000, -7.000000000000000000 ) ) ;
#271 = EDGE_CURVE ( 'NONE', #332, #279, #211, .T. ) ;
#272 = ORIENTED_EDGE ( 'NONE', *, *, #322, .T. ) ;
#273 = LINE ( 'NONE', #141, #204 ) ;
#274 = ORIENTED_EDGE ( 'NONE', *, *, #177, .T. ) ;
#275 = ADVANCED_FACE ( 'NONE', ( #83 ), #306, .T. ) ;
#276 = AXIS2_PLACEMENT_3D ( 'NONE', #125, #151, #330 ) ;
#277 = VECTOR ( 'NONE', #25, 1000.000000000000000 ) ;
#278 = PLANE ( 'NONE',  #276 ) ;
#279 = VERTEX_POINT ( 'NONE', #126 ) ;
#280 = CARTESIAN_POINT ( 'NONE',  ( -15.42737808252433000, 8.149999999999998600, -7.000000000000000000 ) ) ;
#281 = PRODUCT_DEFINITION_CONTEXT ( 'detailed design', #286, 'design' ) ;
#282 = EDGE_CURVE ( 'NONE', #77, #188, #207, .T. ) ;
#283 = DIRECTION ( 'NONE',  ( 1.000000000000000000, 0.0000000000000000000, 0.0000000000000000000 ) ) ;
#284 = APPLICATION_PROTOCOL_DEFINITION ( 'draft international standard', 'automotive_design', 1998, #310 ) ;
#285 = LINE ( 'NONE', #255, #277 ) ;
#286 = APPLICATION_CONTEXT ( 'automotive_design' ) ;
#287 = ORIENTED_EDGE ( 'NONE', *, *, #305, .T. ) ;
#288 = EDGE_CURVE ( 'NONE', #279, #102, #285, .T. ) ;
#289 = LINE ( 'NONE', #52, #248 ) ;
#290 = CARTESIAN_POINT ( 'NONE',  ( -15.42737808252433000, 8.149999999999998600, 7.000000000000000000 ) ) ;
#291 = DIRECTION ( 'NONE',  ( -0.0000000000000000000, -0.0000000000000000000, -1.000000000000000000 ) ) ;
#292 = DIRECTION ( 'NONE',  ( -1.000000000000000000, 0.0000000000000000000, 0.0000000000000000000 ) ) ;
#293 = ORIENTED_EDGE ( 'NONE', *, *, #128, .F. ) ;
#294 = ORIENTED_EDGE ( 'NONE', *, *, #236, .F. ) ;
#295 = LINE ( 'NONE', #290, #333 ) ;
#296 = CARTESIAN_POINT ( 'NONE',  ( -16.64999999999999900, 9.349999999999999600, 7.000000000000000000 ) ) ;
#297 = ADVANCED_FACE ( 'NONE', ( #4 ), #129, .F. ) ;
#298 = LINE ( 'NONE', #175, #90 ) ;
#299 = VERTEX_POINT ( 'NONE', #280 ) ;
#300 = SURFACE_STYLE_FILL_AREA ( #155 ) ;
#301 = EDGE_LOOP ( 'NONE', ( #51, #50, #287, #59 ) ) ;
#302 = ADVANCED_BREP_SHAPE_REPRESENTATION ( '6193501', ( #47, #182 ), #30 ) ;
#303 = LINE ( 'NONE', #36, #235 ) ;
#304 = DIRECTION ( 'NONE',  ( -0.0000000000000000000, -0.0000000000000000000, -1.000000000000000000 ) ) ;
#305 = EDGE_CURVE ( 'NONE', #217, #232, #198, .T. ) ;
#306 = PLANE ( 'NONE',  #311 ) ;
#307 = ORIENTED_EDGE ( 'NONE', *, *, #288, .F. ) ;
#308 = FILL_AREA_STYLE_COLOUR ( '', #121 ) ;
#309 = VECTOR ( 'NONE', #96, 1000.000000000000000 ) ;
#310 = APPLICATION_CONTEXT ( 'automotive_design' ) ;
#311 = AXIS2_PLACEMENT_3D ( 'NONE', #254, #331, #176 ) ;
#312 = ORIENTED_EDGE ( 'NONE', *, *, #282, .F. ) ;
#313 = ORIENTED_EDGE ( 'NONE', *, *, #247, .F. ) ;
#314 = LINE ( 'NONE', #270, #55 ) ;
#315 = STYLED_ITEM ( 'NONE', ( #94 ), #47 ) ;
#316 = DIRECTION ( 'NONE',  ( 0.9998256268259461100, -0.01867393750937520700, 0.0000000000000000000 ) ) ;
#317 = CARTESIAN_POINT ( 'NONE',  ( 16.64999999999999900, 9.349999999999999600, 7.000000000000000000 ) ) ;
#318 = ORIENTED_EDGE ( 'NONE', *, *, #210, .F. ) ;
#319 = VERTEX_POINT ( 'NONE', #80 ) ;
#320 = CARTESIAN_POINT ( 'NONE',  ( -15.26983225744578800, -0.2851976241691434000, 7.000000000000000000 ) ) ;
#321 = DIRECTION ( 'NONE',  ( -0.0000000000000000000, -0.0000000000000000000, -1.000000000000000000 ) ) ;
#322 = EDGE_CURVE ( 'NONE', #217, #223, #268, .T. ) ;
#323 = DIRECTION ( 'NONE',  ( 0.0000000000000000000, -0.0000000000000000000, -1.000000000000000000 ) ) ;
#324 = EDGE_LOOP ( 'NONE', ( #164, #312, #263, #32 ) ) ;
#325 = ADVANCED_FACE ( 'NONE', ( #327 ), #26, .F. ) ;
#326 = VECTOR ( 'NONE', #321, 1000.000000000000000 ) ;
#327 = FACE_OUTER_BOUND ( 'NONE', #301, .T. ) ;
#328 = VERTEX_POINT ( 'NONE', #131 ) ;
#329 = CARTESIAN_POINT ( 'NONE',  ( 15.42737808252433000, 8.149999999999998600, 7.000000000000000000 ) ) ;
#330 = DIRECTION ( 'NONE',  ( 0.01867393750937520700, -0.9998256268259461100, 0.0000000000000000000 ) ) ;
#331 = DIRECTION ( 'NONE',  ( 0.0000000000000000000, -1.000000000000000000, 0.0000000000000000000 ) ) ;
#332 = VERTEX_POINT ( 'NONE', #27 ) ;
#333 = VECTOR ( 'NONE', #291, 1000.000000000000000 ) ;
#334 = DIRECTION ( 'NONE',  ( -1.000000000000000000, 0.0000000000000000000, -0.0000000000000000000 ) ) ;
ENDSEC;
END-ISO-10303-21;
