ISO-10303-21;
HEADER;
FILE_DESCRIPTION (( 'STEP AP214' ),
    '1' );
FILE_NAME ('6193528.STEP',
    '2016-06-29T09:17:45',
    ( '' ),
    ( '' ),
    'SwSTEP 2.0',
    'SolidWorks 2014',
    '' );
FILE_SCHEMA (( 'AUTOMOTIVE_DESIGN' ));
ENDSEC;

DATA;
#1 = AXIS2_PLACEMENT_3D ( 'NONE', #232, #152, #73 ) ;
#2 = APPLICATION_PROTOCOL_DEFINITION ( 'draft international standard', 'automotive_design', 1998, #147 ) ;
#3 = FACE_OUTER_BOUND ( 'NONE', #151, .T. ) ;
#4 = CARTESIAN_POINT ( 'NONE',  ( -20.47417243047085100, 8.150000000000000400, 7.000000000000000000 ) ) ;
#5 = DIRECTION ( 'NONE',  ( 0.0000000000000000000, 1.000000000000000000, 0.0000000000000000000 ) ) ;
#6 = ORIENTED_EDGE ( 'NONE', *, *, #85, .T. ) ;
#7 = CARTESIAN_POINT ( 'NONE',  ( 20.29140535733864300, -0.4321305469112056700, -7.000000000000000000 ) ) ;
#8 = DIRECTION ( 'NONE',  ( 0.0000000000000000000, -0.0000000000000000000, 1.000000000000000000 ) ) ;
#9 = ADVANCED_BREP_SHAPE_REPRESENTATION ( '6193528', ( #218, #74 ), #12 ) ;
#10 = FACE_OUTER_BOUND ( 'NONE', #131, .T. ) ;
#11 = CARTESIAN_POINT ( 'NONE',  ( -21.69999999999999600, 9.350000000000001400, 7.000000000000000000 ) ) ;
#12 =( GEOMETRIC_REPRESENTATION_CONTEXT ( 3 ) GLOBAL_UNCERTAINTY_ASSIGNED_CONTEXT ( ( #96 ) ) GLOBAL_UNIT_ASSIGNED_CONTEXT ( ( #251, #93, #278 ) ) REPRESENTATION_CONTEXT ( 'NONE', 'WORKASPACE' ) );
#13 = SURFACE_SIDE_STYLE ('',( #19 ) ) ;
#14 = CARTESIAN_POINT ( 'NONE',  ( 0.0000000000000000000, 8.150000000000000400, -7.000000000000000000 ) ) ;
#15 = ORIENTED_EDGE ( 'NONE', *, *, #101, .F. ) ;
#16 = PRODUCT_DEFINITION_CONTEXT ( 'detailed design', #147, 'design' ) ;
#17 = VERTEX_POINT ( 'NONE', #208 ) ;
#18 = DIRECTION ( 'NONE',  ( -1.000000000000000000, 0.0000000000000000000, 0.0000000000000000000 ) ) ;
#19 = SURFACE_STYLE_FILL_AREA ( #160 ) ;
#20 = DIRECTION ( 'NONE',  ( -0.0000000000000000000, -0.0000000000000000000, -1.000000000000000000 ) ) ;
#21 = EDGE_CURVE ( 'NONE', #103, #242, #203, .T. ) ;
#22 = ADVANCED_FACE ( 'NONE', ( #10 ), #227, .T. ) ;
#23 = DIRECTION ( 'NONE',  ( 0.0000000000000000000, -0.0000000000000000000, -1.000000000000000000 ) ) ;
#24 = CARTESIAN_POINT ( 'NONE',  ( 0.0000000000000000000, 0.0000000000000000000, 0.0000000000000000000 ) ) ;
#25 = ORIENTED_EDGE ( 'NONE', *, *, #194, .F. ) ;
#26 = FILL_AREA_STYLE ('',( #173 ) ) ;
#27 = FACE_OUTER_BOUND ( 'NONE', #80, .T. ) ;
#28 = VERTEX_POINT ( 'NONE', #95 ) ;
#29 = CARTESIAN_POINT ( 'NONE',  ( -20.10148830939734300, -9.349999999999997900, 7.000000000000000000 ) ) ;
#30 = DIRECTION ( 'NONE',  ( 0.02129140789487412400, 0.9997733122812660900, 0.0000000000000000000 ) ) ;
#31 = ORIENTED_EDGE ( 'NONE', *, *, #324, .F. ) ;
#32 = CARTESIAN_POINT ( 'NONE',  ( -20.47417243047085100, 8.150000000000000400, -7.000000000000000000 ) ) ;
#33 = DIRECTION ( 'NONE',  ( 0.0000000000000000000, -1.000000000000000000, 0.0000000000000000000 ) ) ;
#34 = LINE ( 'NONE', #268, #150 ) ;
#35 =( LENGTH_UNIT ( ) NAMED_UNIT ( * ) SI_UNIT ( .MILLI., .METRE. ) );
#36 = ORIENTED_EDGE ( 'NONE', *, *, #231, .T. ) ;
#37 = AXIS2_PLACEMENT_3D ( 'NONE', #83, #108, #294 ) ;
#38 = ORIENTED_EDGE ( 'NONE', *, *, #55, .F. ) ;
#39 = LINE ( 'NONE', #29, #317 ) ;
#40 = AXIS2_PLACEMENT_3D ( 'NONE', #226, #5, #124 ) ;
#41 = DIRECTION ( 'NONE',  ( -0.0000000000000000000, -0.0000000000000000000, -1.000000000000000000 ) ) ;
#42 = ADVANCED_FACE ( 'NONE', ( #3 ), #100, .F. ) ;
#43 = DIRECTION ( 'NONE',  ( 0.02129140789487412400, -0.9997733122812660900, -0.0000000000000000000 ) ) ;
#44 = VECTOR ( 'NONE', #41, 1000.000000000000000 ) ;
#45 = ORIENTED_EDGE ( 'NONE', *, *, #191, .T. ) ;
#46 = DIRECTION ( 'NONE',  ( 0.02129140789487412400, -0.9997733122812660900, 0.0000000000000000000 ) ) ;
#47 = SURFACE_STYLE_USAGE ( .BOTH. , #202 ) ;
#48 = FACE_OUTER_BOUND ( 'NONE', #249, .T. ) ;
#49 = VECTOR ( 'NONE', #195, 1000.000000000000000 ) ;
#50 = CARTESIAN_POINT ( 'NONE',  ( 0.0000000000000000000, 8.150000000000000400, 7.000000000000000000 ) ) ;
#51 = AXIS2_PLACEMENT_3D ( 'NONE', #11, #33, #213 ) ;
#52 = LINE ( 'NONE', #14, #321 ) ;
#53 = ORIENTED_EDGE ( 'NONE', *, *, #264, .T. ) ;
#54 = ORIENTED_EDGE ( 'NONE', *, *, #21, .T. ) ;
#55 = EDGE_CURVE ( 'NONE', #28, #329, #146, .T. ) ;
#56 = CARTESIAN_POINT ( 'NONE',  ( -21.30176039633858700, -9.349999999999997900, 7.000000000000000000 ) ) ;
#57 = LINE ( 'NONE', #158, #325 ) ;
#58 = CARTESIAN_POINT ( 'NONE',  ( 20.29140535733864300, -0.4321305469112056700, 7.000000000000000000 ) ) ;
#59 =( NAMED_UNIT ( * ) SI_UNIT ( $, .STERADIAN. ) SOLID_ANGLE_UNIT ( ) );
#60 = LINE ( 'NONE', #135, #293 ) ;
#61 = VERTEX_POINT ( 'NONE', #258 ) ;
#62 =( GEOMETRIC_REPRESENTATION_CONTEXT ( 3 ) GLOBAL_UNCERTAINTY_ASSIGNED_CONTEXT ( ( #274 ) ) GLOBAL_UNIT_ASSIGNED_CONTEXT ( ( #225, #70, #252 ) ) REPRESENTATION_CONTEXT ( 'NONE', 'WORKASPACE' ) );
#63 = VECTOR ( 'NONE', #230, 1000.000000000000000 ) ;
#64 = ORIENTED_EDGE ( 'NONE', *, *, #172, .F. ) ;
#65 = CARTESIAN_POINT ( 'NONE',  ( 0.0000000000000000000, 0.0000000000000000000, -7.000000000000000000 ) ) ;
#66 = EDGE_LOOP ( 'NONE', ( #167, #170, #71, #36 ) ) ;
#67 = CARTESIAN_POINT ( 'NONE',  ( -21.69999999999999600, 9.350000000000001400, 7.000000000000000000 ) ) ;
#68 = VECTOR ( 'NONE', #20, 1000.000000000000000 ) ;
#69 = CARTESIAN_POINT ( 'NONE',  ( 21.49113333207616000, -0.4576802363850545600, 7.000000000000000000 ) ) ;
#70 =( NAMED_UNIT ( * ) PLANE_ANGLE_UNIT ( ) SI_UNIT ( $, .RADIAN. ) );
#71 = ORIENTED_EDGE ( 'NONE', *, *, #101, .T. ) ;
#72 = CARTESIAN_POINT ( 'NONE',  ( -21.69999999999999600, 9.350000000000001400, -7.000000000000000000 ) ) ;
#73 = DIRECTION ( 'NONE',  ( 0.02129140789487412400, -0.9997733122812660900, 0.0000000000000000000 ) ) ;
#74 = AXIS2_PLACEMENT_3D ( 'NONE', #24, #280, #121 ) ;
#75 = VERTEX_POINT ( 'NONE', #128 ) ;
#76 = AXIS2_PLACEMENT_3D ( 'NONE', #263, #102, #8 ) ;
#77 = CARTESIAN_POINT ( 'NONE',  ( -21.69999999999999600, -9.349999999999997900, -7.000000000000000000 ) ) ;
#78 = PLANE ( 'NONE',  #76 ) ;
#79 = CARTESIAN_POINT ( 'NONE',  ( -21.69999999999999600, -9.349999999999997900, -7.000000000000000000 ) ) ;
#80 = EDGE_LOOP ( 'NONE', ( #273, #303, #238, #229 ) ) ;
#81 = VERTEX_POINT ( 'NONE', #284 ) ;
#82 = CARTESIAN_POINT ( 'NONE',  ( 21.49113333207616000, -0.4576802363850545600, -7.000000000000000000 ) ) ;
#83 = CARTESIAN_POINT ( 'NONE',  ( 20.50027202526248600, 9.375549689473849900, 7.000000000000000000 ) ) ;
#84 = FACE_OUTER_BOUND ( 'NONE', #216, .T. ) ;
#85 = EDGE_CURVE ( 'NONE', #110, #136, #57, .T. ) ;
#86 = ORIENTED_EDGE ( 'NONE', *, *, #324, .T. ) ;
#87 =( GEOMETRIC_REPRESENTATION_CONTEXT ( 3 ) GLOBAL_UNCERTAINTY_ASSIGNED_CONTEXT ( ( #333 ) ) GLOBAL_UNIT_ASSIGNED_CONTEXT ( ( #35, #214, #59 ) ) REPRESENTATION_CONTEXT ( 'NONE', 'WORKASPACE' ) );
#88 = VECTOR ( 'NONE', #184, 1000.000000000000100 ) ;
#89 = ORIENTED_EDGE ( 'NONE', *, *, #205, .F. ) ;
#90 = DIRECTION ( 'NONE',  ( -1.000000000000000000, 0.0000000000000000000, -0.0000000000000000000 ) ) ;
#91 = ADVANCED_FACE ( 'NONE', ( #253 ), #206, .F. ) ;
#92 = ORIENTED_EDGE ( 'NONE', *, *, #291, .T. ) ;
#93 =( NAMED_UNIT ( * ) PLANE_ANGLE_UNIT ( ) SI_UNIT ( $, .RADIAN. ) );
#94 = STYLED_ITEM ( 'NONE', ( #209 ), #9 ) ;
#95 = CARTESIAN_POINT ( 'NONE',  ( 20.10148830939735000, -9.349999999999997900, -7.000000000000000000 ) ) ;
#96 = UNCERTAINTY_MEASURE_WITH_UNIT (LENGTH_MEASURE( 1.000000000000000100E-005 ), #251, 'distance_accuracy_value', 'NONE');
#97 = VECTOR ( 'NONE', #236, 1000.000000000000000 ) ;
#98 = VERTEX_POINT ( 'NONE', #307 ) ;
#99 = DIRECTION ( 'NONE',  ( -1.000000000000000000, -0.0000000000000000000, -0.0000000000000000000 ) ) ;
#100 = PLANE ( 'NONE',  #169 ) ;
#101 = EDGE_CURVE ( 'NONE', #193, #103, #122, .T. ) ;
#102 = DIRECTION ( 'NONE',  ( 0.0000000000000000000, 1.000000000000000000, 0.0000000000000000000 ) ) ;
#103 = VERTEX_POINT ( 'NONE', #4 ) ;
#104 = DIRECTION ( 'NONE',  ( -0.0000000000000000000, -0.0000000000000000000, -1.000000000000000000 ) ) ;
#105 = VECTOR ( 'NONE', #182, 1000.000000000000100 ) ;
#106 = DIRECTION ( 'NONE',  ( -0.0000000000000000000, -0.0000000000000000000, -1.000000000000000000 ) ) ;
#107 = ORIENTED_EDGE ( 'NONE', *, *, #291, .F. ) ;
#108 = DIRECTION ( 'NONE',  ( 0.9997733122812662000, -0.02129140789487412800, 0.0000000000000000000 ) ) ;
#109 = LINE ( 'NONE', #67, #118 ) ;
#110 = VERTEX_POINT ( 'NONE', #148 ) ;
#111 = LINE ( 'NONE', #7, #105 ) ;
#112 = LINE ( 'NONE', #275, #250 ) ;
#113 = CARTESIAN_POINT ( 'NONE',  ( 21.30176039633859400, -9.349999999999997900, 7.000000000000000000 ) ) ;
#114 = CARTESIAN_POINT ( 'NONE',  ( -21.69999999999999600, 8.150000000000000400, 7.000000000000000000 ) ) ;
#115 = LINE ( 'NONE', #113, #49 ) ;
#116 = ADVANCED_FACE ( 'NONE', ( #192 ), #149, .T. ) ;
#117 = ORIENTED_EDGE ( 'NONE', *, *, #120, .F. ) ;
#118 = VECTOR ( 'NONE', #245, 1000.000000000000000 ) ;
#119 = DIRECTION ( 'NONE',  ( 0.02129140789487412400, 0.9997733122812660900, -0.0000000000000000000 ) ) ;
#120 = EDGE_CURVE ( 'NONE', #163, #156, #265, .T. ) ;
#121 = DIRECTION ( 'NONE',  ( 1.000000000000000000, 0.0000000000000000000, 0.0000000000000000000 ) ) ;
#122 = LINE ( 'NONE', #50, #183 ) ;
#123 = CARTESIAN_POINT ( 'NONE',  ( 21.70000000000000300, 9.350000000000001400, 7.000000000000000000 ) ) ;
#124 = DIRECTION ( 'NONE',  ( 0.0000000000000000000, -0.0000000000000000000, 1.000000000000000000 ) ) ;
#125 = LINE ( 'NONE', #319, #188 ) ;
#126 = PRESENTATION_LAYER_ASSIGNMENT (  '', '', ( #283 ) ) ;
#127 = ORIENTED_EDGE ( 'NONE', *, *, #155, .T. ) ;
#128 = CARTESIAN_POINT ( 'NONE',  ( 21.30176039633859000, -9.349999999999997900, 7.000000000000000000 ) ) ;
#129 = DIRECTION ( 'NONE',  ( -1.000000000000000000, 0.0000000000000000000, -0.0000000000000000000 ) ) ;
#130 = VECTOR ( 'NONE', #259, 1000.000000000000100 ) ;
#131 = EDGE_LOOP ( 'NONE', ( #239, #138, #220, #53 ) ) ;
#132 = PRODUCT_RELATED_PRODUCT_CATEGORY ( 'part', '', ( #257 ) ) ;
#133 = DIRECTION ( 'NONE',  ( 0.0000000000000000000, -0.0000000000000000000, -1.000000000000000000 ) ) ;
#134 = FILL_AREA_STYLE_COLOUR ( '', #219 ) ;
#135 = CARTESIAN_POINT ( 'NONE',  ( -20.47417243047085100, 8.150000000000000400, 7.000000000000000000 ) ) ;
#136 = VERTEX_POINT ( 'NONE', #180 ) ;
#137 = CARTESIAN_POINT ( 'NONE',  ( -20.10148830939734300, -9.349999999999997900, 7.000000000000000000 ) ) ;
#138 = ORIENTED_EDGE ( 'NONE', *, *, #191, .F. ) ;
#139 = EDGE_CURVE ( 'NONE', #81, #178, #241, .T. ) ;
#140 = VERTEX_POINT ( 'NONE', #32 ) ;
#141 = CARTESIAN_POINT ( 'NONE',  ( -21.49113333207615300, -0.4576802363850544000, -7.000000000000000000 ) ) ;
#142 = ADVANCED_FACE ( 'NONE', ( #48 ), #78, .F. ) ;
#143 = MECHANICAL_DESIGN_GEOMETRIC_PRESENTATION_REPRESENTATION (  '', ( #283 ), #87 ) ;
#144 = PLANE ( 'NONE',  #277 ) ;
#145 = EDGE_LOOP ( 'NONE', ( #38, #185, #162, #312, #211, #157, #117, #25 ) ) ;
#146 = LINE ( 'NONE', #77, #63 ) ;
#147 = APPLICATION_CONTEXT ( 'automotive_design' ) ;
#148 = CARTESIAN_POINT ( 'NONE',  ( -21.69999999999999600, 9.350000000000001400, 7.000000000000000000 ) ) ;
#149 = PLANE ( 'NONE',  #314 ) ;
#150 = VECTOR ( 'NONE', #104, 1000.000000000000000 ) ;
#151 = EDGE_LOOP ( 'NONE', ( #89, #189, #86, #175, #6, #92, #204, #15 ) ) ;
#152 = DIRECTION ( 'NONE',  ( -0.9997733122812662000, -0.02129140789487412800, 0.0000000000000000000 ) ) ;
#153 = DIRECTION ( 'NONE',  ( 0.02129140789487412400, -0.9997733122812660900, -0.0000000000000000000 ) ) ;
#154 = CARTESIAN_POINT ( 'NONE',  ( 20.47417243047085800, 8.150000000000000400, 7.000000000000000000 ) ) ;
#155 = EDGE_CURVE ( 'NONE', #242, #178, #39, .T. ) ;
#156 = VERTEX_POINT ( 'NONE', #285 ) ;
#157 = ORIENTED_EDGE ( 'NONE', *, *, #256, .F. ) ;
#158 = CARTESIAN_POINT ( 'NONE',  ( -21.49113333207615300, -0.4576802363850544000, 7.000000000000000000 ) ) ;
#159 = PLANE ( 'NONE',  #51 ) ;
#160 = FILL_AREA_STYLE ('',( #134 ) ) ;
#161 = LINE ( 'NONE', #58, #88 ) ;
#162 = ORIENTED_EDGE ( 'NONE', *, *, #244, .T. ) ;
#163 = VERTEX_POINT ( 'NONE', #233 ) ;
#164 = COLOUR_RGB ( '',0.7529411764705882200, 0.7529411764705882200, 0.7529411764705882200 ) ;
#165 = PRESENTATION_LAYER_ASSIGNMENT (  '', '', ( #94 ) ) ;
#166 = LINE ( 'NONE', #266, #297 ) ;
#167 = ORIENTED_EDGE ( 'NONE', *, *, #244, .F. ) ;
#168 = DIRECTION ( 'NONE',  ( 0.0000000000000000000, -1.000000000000000000, 0.0000000000000000000 ) ) ;
#169 = AXIS2_PLACEMENT_3D ( 'NONE', #316, #288, #129 ) ;
#170 = ORIENTED_EDGE ( 'NONE', *, *, #215, .F. ) ;
#171 = LINE ( 'NONE', #199, #68 ) ;
#172 = EDGE_CURVE ( 'NONE', #28, #17, #111, .T. ) ;
#173 = FILL_AREA_STYLE_COLOUR ( '', #164 ) ;
#174 = VECTOR ( 'NONE', #313, 1000.000000000000000 ) ;
#175 = ORIENTED_EDGE ( 'NONE', *, *, #289, .T. ) ;
#176 = DIRECTION ( 'NONE',  ( -1.000000000000000000, 0.0000000000000000000, 0.0000000000000000000 ) ) ;
#177 = LINE ( 'NONE', #141, #328 ) ;
#178 = VERTEX_POINT ( 'NONE', #212 ) ;
#179 = SURFACE_STYLE_FILL_AREA ( #26 ) ;
#180 = CARTESIAN_POINT ( 'NONE',  ( -21.30176039633858700, -9.349999999999997900, 7.000000000000000000 ) ) ;
#181 = PRODUCT_DEFINITION_FORMATION_WITH_SPECIFIED_SOURCE ( 'ANY', '', #257, .NOT_KNOWN. ) ;
#182 = DIRECTION ( 'NONE',  ( 0.02129140789487412400, 0.9997733122812660900, -0.0000000000000000000 ) ) ;
#183 = VECTOR ( 'NONE', #176, 1000.000000000000000 ) ;
#184 = DIRECTION ( 'NONE',  ( 0.02129140789487412400, 0.9997733122812660900, -0.0000000000000000000 ) ) ;
#185 = ORIENTED_EDGE ( 'NONE', *, *, #172, .T. ) ;
#186 = SURFACE_STYLE_USAGE ( .BOTH. , #13 ) ;
#187 = DIRECTION ( 'NONE',  ( 1.000000000000000000, 0.0000000000000000000, 0.0000000000000000000 ) ) ;
#188 = VECTOR ( 'NONE', #187, 1000.000000000000000 ) ;
#189 = ORIENTED_EDGE ( 'NONE', *, *, #235, .T. ) ;
#190 = VECTOR ( 'NONE', #119, 1000.000000000000100 ) ;
#191 = EDGE_CURVE ( 'NONE', #136, #81, #237, .T. ) ;
#192 = FACE_OUTER_BOUND ( 'NONE', #223, .T. ) ;
#193 = VERTEX_POINT ( 'NONE', #154 ) ;
#194 = EDGE_CURVE ( 'NONE', #329, #163, #309, .T. ) ;
#195 = DIRECTION ( 'NONE',  ( 0.0000000000000000000, -0.0000000000000000000, -1.000000000000000000 ) ) ;
#196 = PRODUCT_DEFINITION_SHAPE ( 'NONE', 'NONE',  #224 ) ;
#197 = ORIENTED_EDGE ( 'NONE', *, *, #55, .T. ) ;
#198 = EDGE_CURVE ( 'NONE', #61, #28, #166, .T. ) ;
#199 = CARTESIAN_POINT ( 'NONE',  ( 21.70000000000000300, 9.350000000000001400, 7.000000000000000000 ) ) ;
#200 = ADVANCED_FACE ( 'NONE', ( #27 ), #159, .F. ) ;
#201 = DIRECTION ( 'NONE',  ( -0.9997733122812662000, -0.02129140789487412800, 0.0000000000000000000 ) ) ;
#202 = SURFACE_SIDE_STYLE ('',( #179 ) ) ;
#203 = LINE ( 'NONE', #311, #130 ) ;
#204 = ORIENTED_EDGE ( 'NONE', *, *, #21, .F. ) ;
#205 = EDGE_CURVE ( 'NONE', #61, #193, #161, .T. ) ;
#206 = PLANE ( 'NONE',  #40 ) ;
#207 = ORIENTED_EDGE ( 'NONE', *, *, #198, .F. ) ;
#208 = CARTESIAN_POINT ( 'NONE',  ( 20.47417243047085800, 8.150000000000000400, -7.000000000000000000 ) ) ;
#209 = PRESENTATION_STYLE_ASSIGNMENT (( #47 ) ) ;
#210 = DIRECTION ( 'NONE',  ( -0.0000000000000000000, -0.0000000000000000000, -1.000000000000000000 ) ) ;
#211 = ORIENTED_EDGE ( 'NONE', *, *, #139, .F. ) ;
#212 = CARTESIAN_POINT ( 'NONE',  ( -20.10148830939734300, -9.349999999999997900, -7.000000000000000000 ) ) ;
#213 = DIRECTION ( 'NONE',  ( 0.0000000000000000000, -0.0000000000000000000, -1.000000000000000000 ) ) ;
#214 =( NAMED_UNIT ( * ) PLANE_ANGLE_UNIT ( ) SI_UNIT ( $, .RADIAN. ) );
#215 = EDGE_CURVE ( 'NONE', #193, #17, #34, .T. ) ;
#216 = EDGE_LOOP ( 'NONE', ( #64, #207, #234, #298 ) ) ;
#217 = ORIENTED_EDGE ( 'NONE', *, *, #231, .F. ) ;
#218 = MANIFOLD_SOLID_BREP ( 'Shell3', #281 ) ;
#219 = COLOUR_RGB ( '',0.7529411764705882200, 0.7529411764705882200, 0.7529411764705882200 ) ;
#220 = ORIENTED_EDGE ( 'NONE', *, *, #85, .F. ) ;
#221 = PLANE ( 'NONE',  #326 ) ;
#222 = ADVANCED_FACE ( 'NONE', ( #84 ), #292, .F. ) ;
#223 = EDGE_LOOP ( 'NONE', ( #295, #270, #31, #267 ) ) ;
#224 = PRODUCT_DEFINITION ( 'UNKNOWN', '', #181, #16 ) ;
#225 =( LENGTH_UNIT ( ) NAMED_UNIT ( * ) SI_UNIT ( .MILLI., .METRE. ) );
#226 = CARTESIAN_POINT ( 'NONE',  ( -21.69999999999999600, -9.349999999999997900, 7.000000000000000000 ) ) ;
#227 = PLANE ( 'NONE',  #1 ) ;
#228 = VECTOR ( 'NONE', #290, 1000.000000000000100 ) ;
#229 = ORIENTED_EDGE ( 'NONE', *, *, #308, .T. ) ;
#230 = DIRECTION ( 'NONE',  ( 1.000000000000000000, 0.0000000000000000000, 0.0000000000000000000 ) ) ;
#231 = EDGE_CURVE ( 'NONE', #103, #140, #60, .T. ) ;
#232 = CARTESIAN_POINT ( 'NONE',  ( -21.69999999999999600, 9.350000000000001400, 7.000000000000000000 ) ) ;
#233 = CARTESIAN_POINT ( 'NONE',  ( 21.70000000000000300, 9.350000000000001400, -7.000000000000000000 ) ) ;
#234 = ORIENTED_EDGE ( 'NONE', *, *, #205, .T. ) ;
#235 = EDGE_CURVE ( 'NONE', #61, #75, #125, .T. ) ;
#236 = DIRECTION ( 'NONE',  ( -0.0000000000000000000, -0.0000000000000000000, -1.000000000000000000 ) ) ;
#237 = LINE ( 'NONE', #56, #97 ) ;
#238 = ORIENTED_EDGE ( 'NONE', *, *, #289, .F. ) ;
#239 = ORIENTED_EDGE ( 'NONE', *, *, #256, .T. ) ;
#240 = LINE ( 'NONE', #69, #190 ) ;
#241 = LINE ( 'NONE', #79, #174 ) ;
#242 = VERTEX_POINT ( 'NONE', #137 ) ;
#243 = DIRECTION ( 'NONE',  ( 0.0000000000000000000, 0.0000000000000000000, -1.000000000000000000 ) ) ;
#244 = EDGE_CURVE ( 'NONE', #17, #140, #52, .T. ) ;
#245 = DIRECTION ( 'NONE',  ( -1.000000000000000000, -0.0000000000000000000, -0.0000000000000000000 ) ) ;
#246 = ADVANCED_FACE ( 'NONE', ( #260 ), #221, .T. ) ;
#247 = LINE ( 'NONE', #272, #44 ) ;
#248 = AXIS2_PLACEMENT_3D ( 'NONE', #114, #168, #23 ) ;
#249 = EDGE_LOOP ( 'NONE', ( #287, #107, #45, #279 ) ) ;
#250 = VECTOR ( 'NONE', #300, 1000.000000000000000 ) ;
#251 =( LENGTH_UNIT ( ) NAMED_UNIT ( * ) SI_UNIT ( .MILLI., .METRE. ) );
#252 =( NAMED_UNIT ( * ) SI_UNIT ( $, .STERADIAN. ) SOLID_ANGLE_UNIT ( ) );
#253 = FACE_OUTER_BOUND ( 'NONE', #254, .T. ) ;
#254 = EDGE_LOOP ( 'NONE', ( #286, #310, #197, #296 ) ) ;
#255 = DIRECTION ( 'NONE',  ( 0.9997733122812662000, -0.02129140789487412800, 0.0000000000000000000 ) ) ;
#256 = EDGE_CURVE ( 'NONE', #156, #81, #177, .T. ) ;
#257 = PRODUCT ( '6193528', '6193528', '', ( #306 ) ) ;
#258 = CARTESIAN_POINT ( 'NONE',  ( 20.10148830939735000, -9.349999999999997900, 7.000000000000000000 ) ) ;
#259 = DIRECTION ( 'NONE',  ( 0.02129140789487412400, -0.9997733122812660900, -0.0000000000000000000 ) ) ;
#260 = FACE_OUTER_BOUND ( 'NONE', #145, .T. ) ;
#261 = EDGE_LOOP ( 'NONE', ( #322, #217, #54, #127 ) ) ;
#262 = SHAPE_DEFINITION_REPRESENTATION ( #196, #9 ) ;
#263 = CARTESIAN_POINT ( 'NONE',  ( -21.69999999999999600, -9.349999999999997900, 7.000000000000000000 ) ) ;
#264 = EDGE_CURVE ( 'NONE', #110, #156, #247, .T. ) ;
#265 = LINE ( 'NONE', #72, #271 ) ;
#266 = CARTESIAN_POINT ( 'NONE',  ( 20.10148830939735000, -9.349999999999997900, 7.000000000000000000 ) ) ;
#267 = ORIENTED_EDGE ( 'NONE', *, *, #269, .T. ) ;
#268 = CARTESIAN_POINT ( 'NONE',  ( 20.47417243047085800, 8.150000000000000400, 7.000000000000000000 ) ) ;
#269 = EDGE_CURVE ( 'NONE', #75, #329, #115, .T. ) ;
#270 = ORIENTED_EDGE ( 'NONE', *, *, #308, .F. ) ;
#271 = VECTOR ( 'NONE', #99, 1000.000000000000000 ) ;
#272 = CARTESIAN_POINT ( 'NONE',  ( -21.69999999999999600, 9.350000000000001400, 7.000000000000000000 ) ) ;
#273 = ORIENTED_EDGE ( 'NONE', *, *, #120, .T. ) ;
#274 = UNCERTAINTY_MEASURE_WITH_UNIT (LENGTH_MEASURE( 1.000000000000000100E-005 ), #225, 'distance_accuracy_value', 'NONE');
#275 = CARTESIAN_POINT ( 'NONE',  ( -21.69999999999999600, -9.349999999999997900, 7.000000000000000000 ) ) ;
#276 = CARTESIAN_POINT ( 'NONE',  ( 21.30176039633859000, -9.349999999999997900, -7.000000000000000000 ) ) ;
#277 = AXIS2_PLACEMENT_3D ( 'NONE', #332, #201, #46 ) ;
#278 =( NAMED_UNIT ( * ) SI_UNIT ( $, .STERADIAN. ) SOLID_ANGLE_UNIT ( ) );
#279 = ORIENTED_EDGE ( 'NONE', *, *, #139, .T. ) ;
#280 = DIRECTION ( 'NONE',  ( 0.0000000000000000000, 0.0000000000000000000, 1.000000000000000000 ) ) ;
#281 = CLOSED_SHELL ( 'NONE', ( #142, #42, #246, #116, #200, #22, #91, #222, #301, #331 ) ) ;
#282 = PRESENTATION_STYLE_ASSIGNMENT (( #186 ) ) ;
#283 = STYLED_ITEM ( 'NONE', ( #282 ), #218 ) ;
#284 = CARTESIAN_POINT ( 'NONE',  ( -21.30176039633858700, -9.349999999999997900, -7.000000000000000000 ) ) ;
#285 = CARTESIAN_POINT ( 'NONE',  ( -21.69999999999999600, 9.350000000000001400, -7.000000000000000000 ) ) ;
#286 = ORIENTED_EDGE ( 'NONE', *, *, #235, .F. ) ;
#287 = ORIENTED_EDGE ( 'NONE', *, *, #155, .F. ) ;
#288 = DIRECTION ( 'NONE',  ( 0.0000000000000000000, 0.0000000000000000000, -1.000000000000000000 ) ) ;
#289 = EDGE_CURVE ( 'NONE', #98, #110, #109, .T. ) ;
#290 = DIRECTION ( 'NONE',  ( 0.02129140789487412400, 0.9997733122812660900, -0.0000000000000000000 ) ) ;
#291 = EDGE_CURVE ( 'NONE', #136, #242, #112, .T. ) ;
#292 = PLANE ( 'NONE',  #37 ) ;
#293 = VECTOR ( 'NONE', #106, 1000.000000000000000 ) ;
#294 = DIRECTION ( 'NONE',  ( 0.02129140789487412400, 0.9997733122812660900, 0.0000000000000000000 ) ) ;
#295 = ORIENTED_EDGE ( 'NONE', *, *, #194, .T. ) ;
#296 = ORIENTED_EDGE ( 'NONE', *, *, #269, .F. ) ;
#297 = VECTOR ( 'NONE', #133, 1000.000000000000000 ) ;
#298 = ORIENTED_EDGE ( 'NONE', *, *, #215, .T. ) ;
#299 = PLANE ( 'NONE',  #248 ) ;
#300 = DIRECTION ( 'NONE',  ( 1.000000000000000000, 0.0000000000000000000, 0.0000000000000000000 ) ) ;
#301 = ADVANCED_FACE ( 'NONE', ( #304 ), #299, .T. ) ;
#302 = MECHANICAL_DESIGN_GEOMETRIC_PRESENTATION_REPRESENTATION (  '', ( #94 ), #62 ) ;
#303 = ORIENTED_EDGE ( 'NONE', *, *, #264, .F. ) ;
#304 = FACE_OUTER_BOUND ( 'NONE', #66, .T. ) ;
#305 = APPLICATION_PROTOCOL_DEFINITION ( 'draft international standard', 'automotive_design', 1998, #334 ) ;
#306 = PRODUCT_CONTEXT ( 'NONE', #334, 'mechanical' ) ;
#307 = CARTESIAN_POINT ( 'NONE',  ( 21.70000000000000300, 9.350000000000001400, 7.000000000000000000 ) ) ;
#308 = EDGE_CURVE ( 'NONE', #98, #163, #171, .T. ) ;
#309 = LINE ( 'NONE', #82, #228 ) ;
#310 = ORIENTED_EDGE ( 'NONE', *, *, #198, .T. ) ;
#311 = CARTESIAN_POINT ( 'NONE',  ( -20.29140535733863600, -0.4321305469112055000, 7.000000000000000000 ) ) ;
#312 = ORIENTED_EDGE ( 'NONE', *, *, #320, .T. ) ;
#313 = DIRECTION ( 'NONE',  ( 1.000000000000000000, 0.0000000000000000000, 0.0000000000000000000 ) ) ;
#314 = AXIS2_PLACEMENT_3D ( 'NONE', #123, #255, #30 ) ;
#315 = FACE_OUTER_BOUND ( 'NONE', #261, .T. ) ;
#316 = CARTESIAN_POINT ( 'NONE',  ( 0.0000000000000000000, 0.0000000000000000000, 7.000000000000000000 ) ) ;
#317 = VECTOR ( 'NONE', #210, 1000.000000000000000 ) ;
#318 = LINE ( 'NONE', #330, #323 ) ;
#319 = CARTESIAN_POINT ( 'NONE',  ( -21.69999999999999600, -9.349999999999997900, 7.000000000000000000 ) ) ;
#320 = EDGE_CURVE ( 'NONE', #140, #178, #318, .T. ) ;
#321 = VECTOR ( 'NONE', #18, 1000.000000000000000 ) ;
#322 = ORIENTED_EDGE ( 'NONE', *, *, #320, .F. ) ;
#323 = VECTOR ( 'NONE', #43, 1000.000000000000100 ) ;
#324 = EDGE_CURVE ( 'NONE', #75, #98, #240, .T. ) ;
#325 = VECTOR ( 'NONE', #153, 1000.000000000000100 ) ;
#326 = AXIS2_PLACEMENT_3D ( 'NONE', #65, #243, #90 ) ;
#327 = DIRECTION ( 'NONE',  ( 0.02129140789487412400, -0.9997733122812660900, -0.0000000000000000000 ) ) ;
#328 = VECTOR ( 'NONE', #327, 1000.000000000000100 ) ;
#329 = VERTEX_POINT ( 'NONE', #276 ) ;
#330 = CARTESIAN_POINT ( 'NONE',  ( -20.29140535733863600, -0.4321305469112055000, -7.000000000000000000 ) ) ;
#331 = ADVANCED_FACE ( 'NONE', ( #315 ), #144, .F. ) ;
#332 = CARTESIAN_POINT ( 'NONE',  ( -20.50027202526247900, 9.375549689473849900, 7.000000000000000000 ) ) ;
#333 = UNCERTAINTY_MEASURE_WITH_UNIT (LENGTH_MEASURE( 1.000000000000000100E-005 ), #35, 'distance_accuracy_value', 'NONE');
#334 = APPLICATION_CONTEXT ( 'automotive_design' ) ;
ENDSEC;
END-ISO-10303-21;
