ISO-10303-21;
HEADER;
FILE_DESCRIPTION (( 'STEP AP214' ),
    '1' );
FILE_NAME ('6193560.stp',
    '2016-06-30T12:24:44',
    ( '' ),
    ( '' ),
    'SwSTEP 2.0',
    'SolidWorks 2014',
    '' );
FILE_SCHEMA (( 'AUTOMOTIVE_DESIGN' ));
ENDSEC;

DATA;
#1 = VECTOR ( 'NONE', #7, 1000.000000000000000 ) ;
#2 = ORIENTED_EDGE ( 'NONE', *, *, #212, .F. ) ;
#3 = CARTESIAN_POINT ( 'NONE',  ( 20.50000000000000400, -13.35000000000000100, 7.000000000000000000 ) ) ;
#4 = ORIENTED_EDGE ( 'NONE', *, *, #147, .F. ) ;
#5 = UNCERTAINTY_MEASURE_WITH_UNIT (LENGTH_MEASURE( 1.000000000000000100E-005 ), #72, 'distance_accuracy_value', 'NONE');
#6 = ADVANCED_FACE ( 'NONE', ( #20 ), #83, .T. ) ;
#7 = DIRECTION ( 'NONE',  ( -0.0000000000000000000, -0.0000000000000000000, -1.000000000000000000 ) ) ;
#8 = PLANE ( 'NONE',  #244 ) ;
#9 = FACE_OUTER_BOUND ( 'NONE', #80, .T. ) ;
#10 = CLOSED_SHELL ( 'NONE', ( #123, #30, #287, #230, #152, #99, #258, #175, #6, #179 ) ) ;
#11 = CARTESIAN_POINT ( 'NONE',  ( -21.69999999999999600, 12.14999999999999700, 7.000000000000000000 ) ) ;
#12 = VECTOR ( 'NONE', #58, 1000.000000000000000 ) ;
#13 = LINE ( 'NONE', #322, #12 ) ;
#14 = AXIS2_PLACEMENT_3D ( 'NONE', #11, #297, #317 ) ;
#15 = VERTEX_POINT ( 'NONE', #134 ) ;
#16 = ORIENTED_EDGE ( 'NONE', *, *, #202, .T. ) ;
#17 = DIRECTION ( 'NONE',  ( 0.0000000000000000000, 1.000000000000000000, 0.0000000000000000000 ) ) ;
#18 = VECTOR ( 'NONE', #167, 1000.000000000000000 ) ;
#19 = VECTOR ( 'NONE', #51, 1000.000000000000000 ) ;
#20 = FACE_OUTER_BOUND ( 'NONE', #252, .T. ) ;
#21 = CARTESIAN_POINT ( 'NONE',  ( 21.70000000000000300, -13.35000000000000100, 7.000000000000000000 ) ) ;
#22 = PRODUCT_CONTEXT ( 'NONE', #291, 'mechanical' ) ;
#23 = DIRECTION ( 'NONE',  ( 0.0000000000000000000, 1.000000000000000000, 0.0000000000000000000 ) ) ;
#24 = ORIENTED_EDGE ( 'NONE', *, *, #189, .T. ) ;
#25 =( GEOMETRIC_REPRESENTATION_CONTEXT ( 3 ) GLOBAL_UNCERTAINTY_ASSIGNED_CONTEXT ( ( #163 ) ) GLOBAL_UNIT_ASSIGNED_CONTEXT ( ( #33, #77, #311 ) ) REPRESENTATION_CONTEXT ( 'NONE', 'WORKASPACE' ) );
#26 = VECTOR ( 'NONE', #23, 1000.000000000000000 ) ;
#27 = VECTOR ( 'NONE', #264, 1000.000000000000000 ) ;
#28 = LINE ( 'NONE', #277, #314 ) ;
#29 = CARTESIAN_POINT ( 'NONE',  ( 21.70000000000000300, -13.35000000000000100, -7.000000000000000000 ) ) ;
#30 = ADVANCED_FACE ( 'NONE', ( #87 ), #132, .F. ) ;
#31 = CARTESIAN_POINT ( 'NONE',  ( 21.70000000000000300, -13.35000000000000100, -7.000000000000000000 ) ) ;
#32 = ORIENTED_EDGE ( 'NONE', *, *, #65, .T. ) ;
#33 =( LENGTH_UNIT ( ) NAMED_UNIT ( * ) SI_UNIT ( .MILLI., .METRE. ) );
#34 = ORIENTED_EDGE ( 'NONE', *, *, #174, .T. ) ;
#35 = VERTEX_POINT ( 'NONE', #160 ) ;
#36 = SHAPE_DEFINITION_REPRESENTATION ( #231, #81 ) ;
#37 = ORIENTED_EDGE ( 'NONE', *, *, #142, .F. ) ;
#38 = VERTEX_POINT ( 'NONE', #318 ) ;
#39 = CARTESIAN_POINT ( 'NONE',  ( -21.69999999999999600, 13.34999999999999800, 7.000000000000000000 ) ) ;
#40 = PLANE ( 'NONE',  #310 ) ;
#41 = ORIENTED_EDGE ( 'NONE', *, *, #66, .T. ) ;
#42 = DIRECTION ( 'NONE',  ( -1.000000000000000000, -0.0000000000000000000, -0.0000000000000000000 ) ) ;
#43 = PRODUCT_DEFINITION_CONTEXT ( 'detailed design', #91, 'design' ) ;
#44 = EDGE_LOOP ( 'NONE', ( #48, #216, #97, #137, #303, #162, #4, #240 ) ) ;
#45 = LINE ( 'NONE', #153, #253 ) ;
#46 = FACE_OUTER_BOUND ( 'NONE', #210, .T. ) ;
#47 = DIRECTION ( 'NONE',  ( 0.0000000000000000000, 0.0000000000000000000, -1.000000000000000000 ) ) ;
#48 = ORIENTED_EDGE ( 'NONE', *, *, #120, .F. ) ;
#49 = CARTESIAN_POINT ( 'NONE',  ( -20.49999999999999600, 12.14999999999999700, 7.000000000000000000 ) ) ;
#50 = DIRECTION ( 'NONE',  ( 1.000000000000000000, 0.0000000000000000000, 0.0000000000000000000 ) ) ;
#51 = DIRECTION ( 'NONE',  ( -0.0000000000000000000, -1.000000000000000000, -0.0000000000000000000 ) ) ;
#52 = CARTESIAN_POINT ( 'NONE',  ( 20.50000000000000400, -13.35000000000000100, 7.000000000000000000 ) ) ;
#53 = LINE ( 'NONE', #256, #186 ) ;
#54 = EDGE_LOOP ( 'NONE', ( #119, #220, #148, #290, #146, #281, #60, #296 ) ) ;
#55 = ORIENTED_EDGE ( 'NONE', *, *, #174, .F. ) ;
#56 = LINE ( 'NONE', #31, #200 ) ;
#57 = VECTOR ( 'NONE', #278, 1000.000000000000000 ) ;
#58 = DIRECTION ( 'NONE',  ( -0.0000000000000000000, -0.0000000000000000000, -1.000000000000000000 ) ) ;
#59 = DIRECTION ( 'NONE',  ( 0.0000000000000000000, 0.0000000000000000000, -1.000000000000000000 ) ) ;
#60 = ORIENTED_EDGE ( 'NONE', *, *, #189, .F. ) ;
#61 = CARTESIAN_POINT ( 'NONE',  ( 21.70000000000000300, -13.35000000000000100, 7.000000000000000000 ) ) ;
#62 = DIRECTION ( 'NONE',  ( -1.000000000000000000, 0.0000000000000000000, 0.0000000000000000000 ) ) ;
#63 = FACE_OUTER_BOUND ( 'NONE', #110, .T. ) ;
#64 = VERTEX_POINT ( 'NONE', #217 ) ;
#65 = EDGE_CURVE ( 'NONE', #96, #95, #238, .T. ) ;
#66 = EDGE_CURVE ( 'NONE', #64, #95, #225, .T. ) ;
#67 = AXIS2_PLACEMENT_3D ( 'NONE', #263, #208, #155 ) ;
#68 = VECTOR ( 'NONE', #301, 1000.000000000000000 ) ;
#69 = ORIENTED_EDGE ( 'NONE', *, *, #122, .T. ) ;
#70 = CARTESIAN_POINT ( 'NONE',  ( -20.49999999999999600, -13.35000000000000100, 7.000000000000000000 ) ) ;
#71 = PRODUCT ( '6193560', '6193560', '', ( #22 ) ) ;
#72 =( LENGTH_UNIT ( ) NAMED_UNIT ( * ) SI_UNIT ( .MILLI., .METRE. ) );
#73 = APPLICATION_PROTOCOL_DEFINITION ( 'draft international standard', 'automotive_design', 1998, #291 ) ;
#74 = CARTESIAN_POINT ( 'NONE',  ( -20.49999999999999600, 0.0000000000000000000, 7.000000000000000000 ) ) ;
#75 = ORIENTED_EDGE ( 'NONE', *, *, #116, .F. ) ;
#76 = EDGE_LOOP ( 'NONE', ( #226, #150, #171, #215 ) ) ;
#77 =( NAMED_UNIT ( * ) PLANE_ANGLE_UNIT ( ) SI_UNIT ( $, .RADIAN. ) );
#78 = CARTESIAN_POINT ( 'NONE',  ( -20.49999999999999600, -13.35000000000000100, 7.000000000000000000 ) ) ;
#79 = COLOUR_RGB ( '',0.7529411764705882200, 0.7529411764705882200, 0.7529411764705882200 ) ;
#80 = EDGE_LOOP ( 'NONE', ( #75, #108, #306, #69 ) ) ;
#81 = ADVANCED_BREP_SHAPE_REPRESENTATION ( '6193560', ( #196, #243 ), #25 ) ;
#82 = CARTESIAN_POINT ( 'NONE',  ( -21.69999999999999600, -13.35000000000000100, -7.000000000000000000 ) ) ;
#83 = PLANE ( 'NONE',  #14 ) ;
#84 = DIRECTION ( 'NONE',  ( 0.0000000000000000000, 0.0000000000000000000, -1.000000000000000000 ) ) ;
#85 = EDGE_LOOP ( 'NONE', ( #271, #247, #169, #34 ) ) ;
#86 = CARTESIAN_POINT ( 'NONE',  ( 0.0000000000000000000, 0.0000000000000000000, 7.000000000000000000 ) ) ;
#87 = FACE_OUTER_BOUND ( 'NONE', #54, .T. ) ;
#88 =( NAMED_UNIT ( * ) PLANE_ANGLE_UNIT ( ) SI_UNIT ( $, .RADIAN. ) );
#89 = LINE ( 'NONE', #232, #27 ) ;
#90 = VECTOR ( 'NONE', #143, 1000.000000000000000 ) ;
#91 = APPLICATION_CONTEXT ( 'automotive_design' ) ;
#92 = DIRECTION ( 'NONE',  ( 1.000000000000000000, 0.0000000000000000000, 0.0000000000000000000 ) ) ;
#93 = CARTESIAN_POINT ( 'NONE',  ( -21.69999999999999600, -13.35000000000000100, -7.000000000000000000 ) ) ;
#94 = CARTESIAN_POINT ( 'NONE',  ( 21.70000000000000300, 13.34999999999999800, 7.000000000000000000 ) ) ;
#95 = VERTEX_POINT ( 'NONE', #107 ) ;
#96 = VERTEX_POINT ( 'NONE', #78 ) ;
#97 = ORIENTED_EDGE ( 'NONE', *, *, #164, .T. ) ;
#98 = DIRECTION ( 'NONE',  ( 0.0000000000000000000, 1.000000000000000000, 0.0000000000000000000 ) ) ;
#99 = ADVANCED_FACE ( 'NONE', ( #165 ), #40, .F. ) ;
#100 = CARTESIAN_POINT ( 'NONE',  ( 20.50000000000000400, 0.0000000000000000000, 7.000000000000000000 ) ) ;
#101 = EDGE_LOOP ( 'NONE', ( #268, #2, #166, #41 ) ) ;
#102 = AXIS2_PLACEMENT_3D ( 'NONE', #213, #211, #103 ) ;
#103 = DIRECTION ( 'NONE',  ( -1.000000000000000000, 0.0000000000000000000, -0.0000000000000000000 ) ) ;
#104 = PLANE ( 'NONE',  #67 ) ;
#105 = ORIENTED_EDGE ( 'NONE', *, *, #177, .T. ) ;
#106 = DIRECTION ( 'NONE',  ( -1.000000000000000000, 0.0000000000000000000, -0.0000000000000000000 ) ) ;
#107 = CARTESIAN_POINT ( 'NONE',  ( -20.49999999999999600, -13.35000000000000100, -7.000000000000000000 ) ) ;
#108 = ORIENTED_EDGE ( 'NONE', *, *, #173, .F. ) ;
#109 = FACE_OUTER_BOUND ( 'NONE', #44, .T. ) ;
#110 = EDGE_LOOP ( 'NONE', ( #261, #37, #24, #32 ) ) ;
#111 = CARTESIAN_POINT ( 'NONE',  ( -21.69999999999999600, -13.35000000000000100, 7.000000000000000000 ) ) ;
#112 = SURFACE_STYLE_USAGE ( .BOTH. , #141 ) ;
#113 = CARTESIAN_POINT ( 'NONE',  ( 0.0000000000000000000, 12.14999999999999700, -7.000000000000000000 ) ) ;
#114 = DIRECTION ( 'NONE',  ( 0.0000000000000000000, 0.0000000000000000000, -1.000000000000000000 ) ) ;
#115 = ORIENTED_EDGE ( 'NONE', *, *, #190, .F. ) ;
#116 = EDGE_CURVE ( 'NONE', #218, #38, #298, .T. ) ;
#117 = CARTESIAN_POINT ( 'NONE',  ( -20.49999999999999600, 12.14999999999999700, 7.000000000000000000 ) ) ;
#118 = VECTOR ( 'NONE', #98, 1000.000000000000000 ) ;
#119 = ORIENTED_EDGE ( 'NONE', *, *, #187, .F. ) ;
#120 = EDGE_CURVE ( 'NONE', #218, #192, #204, .T. ) ;
#121 =( NAMED_UNIT ( * ) SI_UNIT ( $, .STERADIAN. ) SOLID_ANGLE_UNIT ( ) );
#122 = EDGE_CURVE ( 'NONE', #305, #38, #28, .T. ) ;
#123 = ADVANCED_FACE ( 'NONE', ( #295 ), #199, .F. ) ;
#124 = VERTEX_POINT ( 'NONE', #273 ) ;
#125 = EDGE_CURVE ( 'NONE', #15, #172, #158, .T. ) ;
#126 = SURFACE_STYLE_USAGE ( .BOTH. , #207 ) ;
#127 = CARTESIAN_POINT ( 'NONE',  ( 21.70000000000000300, -13.35000000000000100, 7.000000000000000000 ) ) ;
#128 = CARTESIAN_POINT ( 'NONE',  ( 20.50000000000000400, 12.14999999999999700, 7.000000000000000000 ) ) ;
#129 = LINE ( 'NONE', #176, #1 ) ;
#130 = LINE ( 'NONE', #300, #68 ) ;
#131 = DIRECTION ( 'NONE',  ( -1.000000000000000000, 0.0000000000000000000, 0.0000000000000000000 ) ) ;
#132 = PLANE ( 'NONE',  #242 ) ;
#133 = ORIENTED_EDGE ( 'NONE', *, *, #183, .T. ) ;
#134 = CARTESIAN_POINT ( 'NONE',  ( 21.70000000000000300, -13.35000000000000100, 7.000000000000000000 ) ) ;
#135 = VECTOR ( 'NONE', #234, 1000.000000000000000 ) ;
#136 = ORIENTED_EDGE ( 'NONE', *, *, #125, .F. ) ;
#137 = ORIENTED_EDGE ( 'NONE', *, *, #161, .T. ) ;
#138 = CARTESIAN_POINT ( 'NONE',  ( -21.69999999999999600, -13.35000000000000100, 7.000000000000000000 ) ) ;
#139 = FACE_OUTER_BOUND ( 'NONE', #76, .T. ) ;
#140 = LINE ( 'NONE', #117, #57 ) ;
#141 = SURFACE_SIDE_STYLE ('',( #259 ) ) ;
#142 = EDGE_CURVE ( 'NONE', #233, #198, #140, .T. ) ;
#143 = DIRECTION ( 'NONE',  ( 1.000000000000000000, 0.0000000000000000000, 0.0000000000000000000 ) ) ;
#144 = CARTESIAN_POINT ( 'NONE',  ( 20.50000000000000400, -13.35000000000000100, 7.000000000000000000 ) ) ;
#145 = EDGE_CURVE ( 'NONE', #329, #64, #13, .T. ) ;
#146 = ORIENTED_EDGE ( 'NONE', *, *, #214, .T. ) ;
#147 = EDGE_CURVE ( 'NONE', #35, #124, #266, .T. ) ;
#148 = ORIENTED_EDGE ( 'NONE', *, *, #125, .T. ) ;
#149 = VECTOR ( 'NONE', #154, 1000.000000000000000 ) ;
#150 = ORIENTED_EDGE ( 'NONE', *, *, #173, .T. ) ;
#151 =( NAMED_UNIT ( * ) PLANE_ANGLE_UNIT ( ) SI_UNIT ( $, .RADIAN. ) );
#152 = ADVANCED_FACE ( 'NONE', ( #46 ), #221, .F. ) ;
#153 = CARTESIAN_POINT ( 'NONE',  ( -21.69999999999999600, -13.35000000000000100, 7.000000000000000000 ) ) ;
#154 = DIRECTION ( 'NONE',  ( 1.000000000000000000, 0.0000000000000000000, 0.0000000000000000000 ) ) ;
#155 = DIRECTION ( 'NONE',  ( 0.0000000000000000000, -0.0000000000000000000, 1.000000000000000000 ) ) ;
#156 = DIRECTION ( 'NONE',  ( 1.000000000000000000, 0.0000000000000000000, 0.0000000000000000000 ) ) ;
#157 = VECTOR ( 'NONE', #188, 1000.000000000000000 ) ;
#158 = LINE ( 'NONE', #61, #276 ) ;
#159 = EDGE_CURVE ( 'NONE', #124, #64, #130, .T. ) ;
#160 = CARTESIAN_POINT ( 'NONE',  ( 21.70000000000000300, 13.34999999999999800, -7.000000000000000000 ) ) ;
#161 = EDGE_CURVE ( 'NONE', #198, #95, #274, .T. ) ;
#162 = ORIENTED_EDGE ( 'NONE', *, *, #159, .F. ) ;
#163 = UNCERTAINTY_MEASURE_WITH_UNIT (LENGTH_MEASURE( 1.000000000000000100E-005 ), #33, 'distance_accuracy_value', 'NONE');
#164 = EDGE_CURVE ( 'NONE', #38, #198, #194, .T. ) ;
#165 = FACE_OUTER_BOUND ( 'NONE', #85, .T. ) ;
#166 = ORIENTED_EDGE ( 'NONE', *, *, #145, .T. ) ;
#167 = DIRECTION ( 'NONE',  ( 0.0000000000000000000, -1.000000000000000000, 0.0000000000000000000 ) ) ;
#168 = DIRECTION ( 'NONE',  ( 0.0000000000000000000, -0.0000000000000000000, -1.000000000000000000 ) ) ;
#169 = ORIENTED_EDGE ( 'NONE', *, *, #214, .F. ) ;
#170 = UNCERTAINTY_MEASURE_WITH_UNIT (LENGTH_MEASURE( 1.000000000000000100E-005 ), #275, 'distance_accuracy_value', 'NONE');
#171 = ORIENTED_EDGE ( 'NONE', *, *, #120, .T. ) ;
#172 = VERTEX_POINT ( 'NONE', #94 ) ;
#173 = EDGE_CURVE ( 'NONE', #284, #218, #320, .T. ) ;
#174 = EDGE_CURVE ( 'NONE', #180, #124, #282, .T. ) ;
#175 = ADVANCED_FACE ( 'NONE', ( #9 ), #206, .T. ) ;
#176 = CARTESIAN_POINT ( 'NONE',  ( 21.70000000000000300, 13.34999999999999800, 7.000000000000000000 ) ) ;
#177 = EDGE_CURVE ( 'NONE', #15, #192, #270, .T. ) ;
#178 = DIRECTION ( 'NONE',  ( 0.0000000000000000000, 0.0000000000000000000, 1.000000000000000000 ) ) ;
#179 = ADVANCED_FACE ( 'NONE', ( #63 ), #229, .T. ) ;
#180 = VERTEX_POINT ( 'NONE', #309 ) ;
#181 = CARTESIAN_POINT ( 'NONE',  ( 0.0000000000000000000, 0.0000000000000000000, 0.0000000000000000000 ) ) ;
#182 = FILL_AREA_STYLE_COLOUR ( '', #328 ) ;
#183 = EDGE_CURVE ( 'NONE', #172, #35, #129, .T. ) ;
#184 = EDGE_CURVE ( 'NONE', #192, #35, #56, .T. ) ;
#185 = DIRECTION ( 'NONE',  ( 0.0000000000000000000, 0.0000000000000000000, 1.000000000000000000 ) ) ;
#186 = VECTOR ( 'NONE', #286, 1000.000000000000000 ) ;
#187 = EDGE_CURVE ( 'NONE', #284, #305, #265, .T. ) ;
#188 = DIRECTION ( 'NONE',  ( 1.000000000000000000, 0.0000000000000000000, 0.0000000000000000000 ) ) ;
#189 = EDGE_CURVE ( 'NONE', #233, #96, #193, .T. ) ;
#190 = EDGE_CURVE ( 'NONE', #172, #180, #53, .T. ) ;
#191 = PRESENTATION_STYLE_ASSIGNMENT (( #112 ) ) ;
#192 = VERTEX_POINT ( 'NONE', #29 ) ;
#193 = LINE ( 'NONE', #74, #319 ) ;
#194 = LINE ( 'NONE', #113, #299 ) ;
#195 = CARTESIAN_POINT ( 'NONE',  ( -21.69999999999999600, 13.34999999999999800, 7.000000000000000000 ) ) ;
#196 = MANIFOLD_SOLID_BREP ( 'Shell3', #10 ) ;
#197 =( NAMED_UNIT ( * ) SI_UNIT ( $, .STERADIAN. ) SOLID_ANGLE_UNIT ( ) );
#198 = VERTEX_POINT ( 'NONE', #227 ) ;
#199 = PLANE ( 'NONE',  #313 ) ;
#200 = VECTOR ( 'NONE', #260, 1000.000000000000000 ) ;
#201 = EDGE_LOOP ( 'NONE', ( #280, #308, #136, #105 ) ) ;
#202 = EDGE_CURVE ( 'NONE', #305, #233, #89, .T. ) ;
#203 = VECTOR ( 'NONE', #250, 1000.000000000000000 ) ;
#204 = LINE ( 'NONE', #93, #90 ) ;
#205 = EDGE_CURVE ( 'NONE', #284, #15, #45, .T. ) ;
#206 = PLANE ( 'NONE',  #323 ) ;
#207 = SURFACE_SIDE_STYLE ('',( #315 ) ) ;
#208 = DIRECTION ( 'NONE',  ( 0.0000000000000000000, 1.000000000000000000, 0.0000000000000000000 ) ) ;
#209 = VECTOR ( 'NONE', #59, 1000.000000000000000 ) ;
#210 = EDGE_LOOP ( 'NONE', ( #224, #55, #115, #133 ) ) ;
#211 = DIRECTION ( 'NONE',  ( 0.0000000000000000000, 0.0000000000000000000, -1.000000000000000000 ) ) ;
#212 = EDGE_CURVE ( 'NONE', #329, #96, #294, .T. ) ;
#213 = CARTESIAN_POINT ( 'NONE',  ( 0.0000000000000000000, 0.0000000000000000000, -7.000000000000000000 ) ) ;
#214 = EDGE_CURVE ( 'NONE', #180, #329, #219, .T. ) ;
#215 = ORIENTED_EDGE ( 'NONE', *, *, #177, .F. ) ;
#216 = ORIENTED_EDGE ( 'NONE', *, *, #116, .T. ) ;
#217 = CARTESIAN_POINT ( 'NONE',  ( -21.69999999999999600, -13.35000000000000100, -7.000000000000000000 ) ) ;
#218 = VERTEX_POINT ( 'NONE', #235 ) ;
#219 = LINE ( 'NONE', #292, #19 ) ;
#220 = ORIENTED_EDGE ( 'NONE', *, *, #205, .T. ) ;
#221 = PLANE ( 'NONE',  #321 ) ;
#222 = STYLED_ITEM ( 'NONE', ( #191 ), #81 ) ;
#223 = CARTESIAN_POINT ( 'NONE',  ( 20.50000000000000400, 0.0000000000000000000, -7.000000000000000000 ) ) ;
#224 = ORIENTED_EDGE ( 'NONE', *, *, #147, .T. ) ;
#225 = LINE ( 'NONE', #82, #157 ) ;
#226 = ORIENTED_EDGE ( 'NONE', *, *, #205, .F. ) ;
#227 = CARTESIAN_POINT ( 'NONE',  ( -20.49999999999999600, 12.14999999999999700, -7.000000000000000000 ) ) ;
#228 = PRESENTATION_LAYER_ASSIGNMENT (  '', '', ( #222 ) ) ;
#229 = PLANE ( 'NONE',  #330 ) ;
#230 = ADVANCED_FACE ( 'NONE', ( #283 ), #8, .F. ) ;
#231 = PRODUCT_DEFINITION_SHAPE ( 'NONE', 'NONE',  #248 ) ;
#232 = CARTESIAN_POINT ( 'NONE',  ( 0.0000000000000000000, 12.14999999999999700, 7.000000000000000000 ) ) ;
#233 = VERTEX_POINT ( 'NONE', #49 ) ;
#234 = DIRECTION ( 'NONE',  ( -0.0000000000000000000, -0.0000000000000000000, -1.000000000000000000 ) ) ;
#235 = CARTESIAN_POINT ( 'NONE',  ( 20.50000000000000400, -13.35000000000000100, -7.000000000000000000 ) ) ;
#236 = MECHANICAL_DESIGN_GEOMETRIC_PRESENTATION_REPRESENTATION (  '', ( #222 ), #239 ) ;
#237 = CARTESIAN_POINT ( 'NONE',  ( -21.69999999999999600, -13.35000000000000100, 7.000000000000000000 ) ) ;
#238 = LINE ( 'NONE', #267, #293 ) ;
#239 =( GEOMETRIC_REPRESENTATION_CONTEXT ( 3 ) GLOBAL_UNCERTAINTY_ASSIGNED_CONTEXT ( ( #170 ) ) GLOBAL_UNIT_ASSIGNED_CONTEXT ( ( #275, #88, #197 ) ) REPRESENTATION_CONTEXT ( 'NONE', 'WORKASPACE' ) );
#240 = ORIENTED_EDGE ( 'NONE', *, *, #184, .F. ) ;
#241 = ORIENTED_EDGE ( 'NONE', *, *, #164, .F. ) ;
#242 = AXIS2_PLACEMENT_3D ( 'NONE', #86, #84, #106 ) ;
#243 = AXIS2_PLACEMENT_3D ( 'NONE', #181, #326, #92 ) ;
#244 = AXIS2_PLACEMENT_3D ( 'NONE', #127, #131, #185 ) ;
#245 = ORIENTED_EDGE ( 'NONE', *, *, #122, .F. ) ;
#246 = PRESENTATION_STYLE_ASSIGNMENT (( #126 ) ) ;
#247 = ORIENTED_EDGE ( 'NONE', *, *, #145, .F. ) ;
#248 = PRODUCT_DEFINITION ( 'UNKNOWN', '', #255, #43 ) ;
#249 = APPLICATION_PROTOCOL_DEFINITION ( 'draft international standard', 'automotive_design', 1998, #91 ) ;
#250 = DIRECTION ( 'NONE',  ( -0.0000000000000000000, -0.0000000000000000000, -1.000000000000000000 ) ) ;
#251 = FILL_AREA_STYLE ('',( #182 ) ) ;
#252 = EDGE_LOOP ( 'NONE', ( #241, #245, #16, #316 ) ) ;
#253 = VECTOR ( 'NONE', #156, 1000.000000000000000 ) ;
#254 = VECTOR ( 'NONE', #42, 1000.000000000000000 ) ;
#255 = PRODUCT_DEFINITION_FORMATION_WITH_SPECIFIED_SOURCE ( 'ANY', '', #71, .NOT_KNOWN. ) ;
#256 = CARTESIAN_POINT ( 'NONE',  ( -21.69999999999999600, 13.34999999999999800, 7.000000000000000000 ) ) ;
#257 = PRODUCT_RELATED_PRODUCT_CATEGORY ( 'part', '', ( #71 ) ) ;
#258 = ADVANCED_FACE ( 'NONE', ( #139 ), #104, .F. ) ;
#259 = SURFACE_STYLE_FILL_AREA ( #251 ) ;
#260 = DIRECTION ( 'NONE',  ( 0.0000000000000000000, 1.000000000000000000, 0.0000000000000000000 ) ) ;
#261 = ORIENTED_EDGE ( 'NONE', *, *, #161, .F. ) ;
#262 = FILL_AREA_STYLE_COLOUR ( '', #79 ) ;
#263 = CARTESIAN_POINT ( 'NONE',  ( -21.69999999999999600, -13.35000000000000100, 7.000000000000000000 ) ) ;
#264 = DIRECTION ( 'NONE',  ( -1.000000000000000000, 0.0000000000000000000, 0.0000000000000000000 ) ) ;
#265 = LINE ( 'NONE', #100, #118 ) ;
#266 = LINE ( 'NONE', #332, #254 ) ;
#267 = CARTESIAN_POINT ( 'NONE',  ( -20.49999999999999600, -13.35000000000000100, 7.000000000000000000 ) ) ;
#268 = ORIENTED_EDGE ( 'NONE', *, *, #65, .F. ) ;
#269 = DIRECTION ( 'NONE',  ( 0.0000000000000000000, 0.0000000000000000000, -1.000000000000000000 ) ) ;
#270 = LINE ( 'NONE', #21, #135 ) ;
#271 = ORIENTED_EDGE ( 'NONE', *, *, #159, .T. ) ;
#272 = DIRECTION ( 'NONE',  ( 0.0000000000000000000, 0.0000000000000000000, -1.000000000000000000 ) ) ;
#273 = CARTESIAN_POINT ( 'NONE',  ( -21.69999999999999600, 13.34999999999999800, -7.000000000000000000 ) ) ;
#274 = LINE ( 'NONE', #302, #18 ) ;
#275 =( LENGTH_UNIT ( ) NAMED_UNIT ( * ) SI_UNIT ( .MILLI., .METRE. ) );
#276 = VECTOR ( 'NONE', #17, 1000.000000000000000 ) ;
#277 = CARTESIAN_POINT ( 'NONE',  ( 20.50000000000000400, 12.14999999999999700, 7.000000000000000000 ) ) ;
#278 = DIRECTION ( 'NONE',  ( 0.0000000000000000000, 0.0000000000000000000, -1.000000000000000000 ) ) ;
#279 = DIRECTION ( 'NONE',  ( 1.000000000000000000, 0.0000000000000000000, 0.0000000000000000000 ) ) ;
#280 = ORIENTED_EDGE ( 'NONE', *, *, #184, .T. ) ;
#281 = ORIENTED_EDGE ( 'NONE', *, *, #212, .T. ) ;
#282 = LINE ( 'NONE', #39, #203 ) ;
#283 = FACE_OUTER_BOUND ( 'NONE', #201, .T. ) ;
#284 = VERTEX_POINT ( 'NONE', #52 ) ;
#285 = DIRECTION ( 'NONE',  ( 0.0000000000000000000, -1.000000000000000000, 0.0000000000000000000 ) ) ;
#286 = DIRECTION ( 'NONE',  ( -1.000000000000000000, -0.0000000000000000000, -0.0000000000000000000 ) ) ;
#287 = ADVANCED_FACE ( 'NONE', ( #109 ), #289, .T. ) ;
#288 = DIRECTION ( 'NONE',  ( -1.000000000000000000, 0.0000000000000000000, 0.0000000000000000000 ) ) ;
#289 = PLANE ( 'NONE',  #102 ) ;
#290 = ORIENTED_EDGE ( 'NONE', *, *, #190, .T. ) ;
#291 = APPLICATION_CONTEXT ( 'automotive_design' ) ;
#292 = CARTESIAN_POINT ( 'NONE',  ( -21.69999999999999600, -13.35000000000000100, 7.000000000000000000 ) ) ;
#293 = VECTOR ( 'NONE', #269, 1000.000000000000000 ) ;
#294 = LINE ( 'NONE', #237, #149 ) ;
#295 = FACE_OUTER_BOUND ( 'NONE', #101, .T. ) ;
#296 = ORIENTED_EDGE ( 'NONE', *, *, #202, .F. ) ;
#297 = DIRECTION ( 'NONE',  ( 0.0000000000000000000, -1.000000000000000000, 0.0000000000000000000 ) ) ;
#298 = LINE ( 'NONE', #223, #26 ) ;
#299 = VECTOR ( 'NONE', #62, 1000.000000000000000 ) ;
#300 = CARTESIAN_POINT ( 'NONE',  ( -21.69999999999999600, -13.35000000000000100, -7.000000000000000000 ) ) ;
#301 = DIRECTION ( 'NONE',  ( -0.0000000000000000000, -1.000000000000000000, -0.0000000000000000000 ) ) ;
#302 = CARTESIAN_POINT ( 'NONE',  ( -20.49999999999999600, 0.0000000000000000000, -7.000000000000000000 ) ) ;
#303 = ORIENTED_EDGE ( 'NONE', *, *, #66, .F. ) ;
#304 = DIRECTION ( 'NONE',  ( 0.0000000000000000000, -0.0000000000000000000, 1.000000000000000000 ) ) ;
#305 = VERTEX_POINT ( 'NONE', #128 ) ;
#306 = ORIENTED_EDGE ( 'NONE', *, *, #187, .T. ) ;
#307 = FILL_AREA_STYLE ('',( #262 ) ) ;
#308 = ORIENTED_EDGE ( 'NONE', *, *, #183, .F. ) ;
#309 = CARTESIAN_POINT ( 'NONE',  ( -21.69999999999999600, 13.34999999999999800, 7.000000000000000000 ) ) ;
#310 = AXIS2_PLACEMENT_3D ( 'NONE', #138, #279, #272 ) ;
#311 =( NAMED_UNIT ( * ) SI_UNIT ( $, .STERADIAN. ) SOLID_ANGLE_UNIT ( ) );
#312 = CARTESIAN_POINT ( 'NONE',  ( -21.69999999999999600, -13.35000000000000100, 7.000000000000000000 ) ) ;
#313 = AXIS2_PLACEMENT_3D ( 'NONE', #111, #327, #304 ) ;
#314 = VECTOR ( 'NONE', #114, 1000.000000000000000 ) ;
#315 = SURFACE_STYLE_FILL_AREA ( #307 ) ;
#316 = ORIENTED_EDGE ( 'NONE', *, *, #142, .T. ) ;
#317 = DIRECTION ( 'NONE',  ( 0.0000000000000000000, -0.0000000000000000000, -1.000000000000000000 ) ) ;
#318 = CARTESIAN_POINT ( 'NONE',  ( 20.50000000000000400, 12.14999999999999700, -7.000000000000000000 ) ) ;
#319 = VECTOR ( 'NONE', #285, 1000.000000000000000 ) ;
#320 = LINE ( 'NONE', #144, #209 ) ;
#321 = AXIS2_PLACEMENT_3D ( 'NONE', #195, #324, #168 ) ;
#322 = CARTESIAN_POINT ( 'NONE',  ( -21.69999999999999600, -13.35000000000000100, 7.000000000000000000 ) ) ;
#323 = AXIS2_PLACEMENT_3D ( 'NONE', #3, #288, #178 ) ;
#324 = DIRECTION ( 'NONE',  ( 0.0000000000000000000, -1.000000000000000000, 0.0000000000000000000 ) ) ;
#325 = STYLED_ITEM ( 'NONE', ( #246 ), #196 ) ;
#326 = DIRECTION ( 'NONE',  ( 0.0000000000000000000, 0.0000000000000000000, 1.000000000000000000 ) ) ;
#327 = DIRECTION ( 'NONE',  ( 0.0000000000000000000, 1.000000000000000000, 0.0000000000000000000 ) ) ;
#328 = COLOUR_RGB ( '',0.7529411764705882200, 0.7529411764705882200, 0.7529411764705882200 ) ;
#329 = VERTEX_POINT ( 'NONE', #312 ) ;
#330 = AXIS2_PLACEMENT_3D ( 'NONE', #70, #50, #47 ) ;
#331 = PRESENTATION_LAYER_ASSIGNMENT (  '', '', ( #325 ) ) ;
#332 = CARTESIAN_POINT ( 'NONE',  ( -21.69999999999999600, 13.34999999999999800, -7.000000000000000000 ) ) ;
#333 = MECHANICAL_DESIGN_GEOMETRIC_PRESENTATION_REPRESENTATION (  '', ( #325 ), #334 ) ;
#334 =( GEOMETRIC_REPRESENTATION_CONTEXT ( 3 ) GLOBAL_UNCERTAINTY_ASSIGNED_CONTEXT ( ( #5 ) ) GLOBAL_UNIT_ASSIGNED_CONTEXT ( ( #72, #151, #121 ) ) REPRESENTATION_CONTEXT ( 'NONE', 'WORKASPACE' ) );
ENDSEC;
END-ISO-10303-21;
