ISO-10303-21;
HEADER;
FILE_DESCRIPTION (( 'STEP AP214' ),
    '1' );
FILE_NAME ('6290174.stp',
    '2016-06-22T06:22:59',
    ( '' ),
    ( '' ),
    'SwSTEP 2.0',
    'SolidWorks 2014',
    '' );
FILE_SCHEMA (( 'AUTOMOTIVE_DESIGN' ));
ENDSEC;

DATA;
#1 = EDGE_CURVE ( 'NONE', #162, #120, #75, .T. ) ;
#2 = DIRECTION ( 'NONE',  ( 0.0000000000000000000, 0.0000000000000000000, 1.000000000000000000 ) ) ;
#3 = DIRECTION ( 'NONE',  ( 0.0000000000000000000, 1.000000000000000000, 0.0000000000000000000 ) ) ;
#4 = STYLED_ITEM ( 'NONE', ( #71 ), #10 ) ;
#5 = CARTESIAN_POINT ( 'NONE',  ( -40.49999999999999300, 0.0000000000000000000, -32.00000000000000000 ) ) ;
#6 = CIRCLE ( 'NONE', #25, 32.00000000000000000 ) ;
#7 = VERTEX_POINT ( 'NONE', #170 ) ;
#8 = UNCERTAINTY_MEASURE_WITH_UNIT (LENGTH_MEASURE( 1.000000000000000100E-005 ), #163, 'distance_accuracy_value', 'NONE');
#9 = EDGE_CURVE ( 'NONE', #162, #83, #6, .T. ) ;
#10 = MANIFOLD_SOLID_BREP ( 'Boss-Extrude1', #119 ) ;
#11 =( GEOMETRIC_REPRESENTATION_CONTEXT ( 3 ) GLOBAL_UNCERTAINTY_ASSIGNED_CONTEXT ( ( #8 ) ) GLOBAL_UNIT_ASSIGNED_CONTEXT ( ( #163, #37, #38 ) ) REPRESENTATION_CONTEXT ( 'NONE', 'WORKASPACE' ) );
#12 = CARTESIAN_POINT ( 'NONE',  ( -40.49999999999999300, 0.0000000000000000000, -32.00000000000000000 ) ) ;
#13 = MECHANICAL_DESIGN_GEOMETRIC_PRESENTATION_REPRESENTATION (  '', ( #28 ), #11 ) ;
#14 = CARTESIAN_POINT ( 'NONE',  ( -40.49999999999999300, 4.000000000000000000, 0.0000000000000000000 ) ) ;
#15 = AXIS2_PLACEMENT_3D ( 'NONE', #132, #134, #131 ) ;
#16 = APPLICATION_PROTOCOL_DEFINITION ( 'draft international standard', 'automotive_design', 1998, #152 ) ;
#17 = CARTESIAN_POINT ( 'NONE',  ( -40.49999999999999300, 4.000000000000000000, 32.00000000000000000 ) ) ;
#18 = EDGE_CURVE ( 'NONE', #133, #137, #69, .T. ) ;
#19 = AXIS2_PLACEMENT_3D ( 'NONE', #17, #187, #177 ) ;
#20 = EDGE_CURVE ( 'NONE', #123, #162, #72, .T. ) ;
#21 = AXIS2_PLACEMENT_3D ( 'NONE', #203, #127, #155 ) ;
#22 = DIRECTION ( 'NONE',  ( -1.000000000000000000, -0.0000000000000000000, -0.0000000000000000000 ) ) ;
#23 = PRODUCT ( '6290174', '6290174', '', ( #143 ) ) ;
#24 = EDGE_CURVE ( 'NONE', #7, #120, #67, .T. ) ;
#25 = AXIS2_PLACEMENT_3D ( 'NONE', #14, #3, #2 ) ;
#26 = CARTESIAN_POINT ( 'NONE',  ( -40.49999999999999300, 0.0000000000000000000, 32.00000000000000000 ) ) ;
#27 = PRESENTATION_LAYER_ASSIGNMENT (  '', '', ( #28 ) ) ;
#28 = STYLED_ITEM ( 'NONE', ( #39 ), #150 ) ;
#29 = EDGE_CURVE ( 'NONE', #137, #7, #70, .T. ) ;
#30 =( GEOMETRIC_REPRESENTATION_CONTEXT ( 3 ) GLOBAL_UNCERTAINTY_ASSIGNED_CONTEXT ( ( #144 ) ) GLOBAL_UNIT_ASSIGNED_CONTEXT ( ( #129, #128, #164 ) ) REPRESENTATION_CONTEXT ( 'NONE', 'WORKASPACE' ) );
#31 = EDGE_CURVE ( 'NONE', #123, #7, #65, .T. ) ;
#32 = EDGE_CURVE ( 'NONE', #120, #133, #61, .T. ) ;
#33 = PRODUCT_DEFINITION_SHAPE ( 'NONE', 'NONE',  #141 ) ;
#34 = AXIS2_PLACEMENT_3D ( 'NONE', #174, #194, #183 ) ;
#35 = SHAPE_DEFINITION_REPRESENTATION ( #33, #150 ) ;
#36 = CARTESIAN_POINT ( 'NONE',  ( 40.49999999999999300, 4.000000000000000000, 0.0000000000000000000 ) ) ;
#37 =( NAMED_UNIT ( * ) PLANE_ANGLE_UNIT ( ) SI_UNIT ( $, .RADIAN. ) );
#38 =( NAMED_UNIT ( * ) SI_UNIT ( $, .STERADIAN. ) SOLID_ANGLE_UNIT ( ) );
#39 = PRESENTATION_STYLE_ASSIGNMENT (( #140 ) ) ;
#40 = SURFACE_SIDE_STYLE ('',( #57 ) ) ;
#41 = COLOUR_RGB ( '',0.7529411764705882200, 0.7529411764705882200, 0.7529411764705882200 ) ;
#42 = VECTOR ( 'NONE', #47, 1000.000000000000000 ) ;
#43 = VECTOR ( 'NONE', #165, 1000.000000000000000 ) ;
#44 = LINE ( 'NONE', #111, #43 ) ;
#45 = AXIS2_PLACEMENT_3D ( 'NONE', #169, #195, #199 ) ;
#46 = LINE ( 'NONE', #64, #49 ) ;
#47 = DIRECTION ( 'NONE',  ( -0.0000000000000000000, -1.000000000000000000, -0.0000000000000000000 ) ) ;
#48 = CYLINDRICAL_SURFACE ( 'NONE', #188, 32.00000000000000000 ) ;
#49 = VECTOR ( 'NONE', #138, 1000.000000000000000 ) ;
#50 = LINE ( 'NONE', #201, #42 ) ;
#51 = FACE_OUTER_BOUND ( 'NONE', #81, .T. ) ;
#52 = EDGE_CURVE ( 'NONE', #139, #123, #59, .T. ) ;
#53 = CYLINDRICAL_SURFACE ( 'NONE', #116, 32.00000000000000000 ) ;
#54 = FACE_OUTER_BOUND ( 'NONE', #82, .T. ) ;
#55 = FACE_OUTER_BOUND ( 'NONE', #77, .T. ) ;
#56 = FACE_OUTER_BOUND ( 'NONE', #78, .T. ) ;
#57 = SURFACE_STYLE_FILL_AREA ( #153 ) ;
#58 = FACE_OUTER_BOUND ( 'NONE', #79, .T. ) ;
#59 = CIRCLE ( 'NONE', #118, 32.00000000000000000 ) ;
#60 = VECTOR ( 'NONE', #202, 1000.000000000000000 ) ;
#61 = CIRCLE ( 'NONE', #15, 32.00000000000000000 ) ;
#62 = FACE_OUTER_BOUND ( 'NONE', #80, .T. ) ;
#63 = VECTOR ( 'NONE', #22, 1000.000000000000000 ) ;
#64 = CARTESIAN_POINT ( 'NONE',  ( -40.49999999999999300, 4.000000000000000000, 32.00000000000000000 ) ) ;
#65 = LINE ( 'NONE', #192, #60 ) ;
#66 = VECTOR ( 'NONE', #206, 1000.000000000000000 ) ;
#67 = LINE ( 'NONE', #12, #63 ) ;
#68 = VECTOR ( 'NONE', #167, 1000.000000000000000 ) ;
#69 = LINE ( 'NONE', #175, #68 ) ;
#70 = CIRCLE ( 'NONE', #160, 32.00000000000000000 ) ;
#71 = PRESENTATION_STYLE_ASSIGNMENT (( #159 ) ) ;
#72 = LINE ( 'NONE', #168, #66 ) ;
#73 = COLOUR_RGB ( '',0.7529411764705882200, 0.7529411764705882200, 0.7529411764705882200 ) ;
#74 = VECTOR ( 'NONE', #157, 1000.000000000000000 ) ;
#75 = LINE ( 'NONE', #124, #74 ) ;
#76 = SURFACE_STYLE_FILL_AREA ( #161 ) ;
#77 = EDGE_LOOP ( 'NONE', ( #92, #93, #94, #95 ) ) ;
#78 = EDGE_LOOP ( 'NONE', ( #85, #84, #86, #91 ) ) ;
#79 = EDGE_LOOP ( 'NONE', ( #113, #114, #115, #117 ) ) ;
#80 = EDGE_LOOP ( 'NONE', ( #104, #105, #106, #107 ) ) ;
#81 = EDGE_LOOP ( 'NONE', ( #97, #100, #101, #102 ) ) ;
#82 = EDGE_LOOP ( 'NONE', ( #108, #109, #110, #112 ) ) ;
#83 = VERTEX_POINT ( 'NONE', #142 ) ;
#84 = ORIENTED_EDGE ( 'NONE', *, *, #185, .F. ) ;
#85 = ORIENTED_EDGE ( 'NONE', *, *, #32, .T. ) ;
#86 = ORIENTED_EDGE ( 'NONE', *, *, #9, .F. ) ;
#87 = MECHANICAL_DESIGN_GEOMETRIC_PRESENTATION_REPRESENTATION (  '', ( #4 ), #197 ) ;
#88 = ADVANCED_FACE ( 'NONE', ( #58 ), #176, .F. ) ;
#89 = ADVANCED_FACE ( 'NONE', ( #62 ), #182, .F. ) ;
#90 = ADVANCED_FACE ( 'NONE', ( #56 ), #53, .T. ) ;
#91 = ORIENTED_EDGE ( 'NONE', *, *, #1, .T. ) ;
#92 = ORIENTED_EDGE ( 'NONE', *, *, #18, .T. ) ;
#93 = ORIENTED_EDGE ( 'NONE', *, *, #180, .F. ) ;
#94 = ORIENTED_EDGE ( 'NONE', *, *, #136, .F. ) ;
#95 = ORIENTED_EDGE ( 'NONE', *, *, #185, .T. ) ;
#96 = ADVANCED_FACE ( 'NONE', ( #55 ), #122, .F. ) ;
#97 = ORIENTED_EDGE ( 'NONE', *, *, #29, .T. ) ;
#98 = ADVANCED_FACE ( 'NONE', ( #54 ), #147, .T. ) ;
#99 = ADVANCED_FACE ( 'NONE', ( #51 ), #48, .T. ) ;
#100 = ORIENTED_EDGE ( 'NONE', *, *, #31, .F. ) ;
#101 = ORIENTED_EDGE ( 'NONE', *, *, #52, .F. ) ;
#102 = ORIENTED_EDGE ( 'NONE', *, *, #180, .T. ) ;
#103 = PRESENTATION_LAYER_ASSIGNMENT (  '', '', ( #4 ) ) ;
#104 = ORIENTED_EDGE ( 'NONE', *, *, #24, .T. ) ;
#105 = ORIENTED_EDGE ( 'NONE', *, *, #1, .F. ) ;
#106 = ORIENTED_EDGE ( 'NONE', *, *, #20, .F. ) ;
#107 = ORIENTED_EDGE ( 'NONE', *, *, #31, .T. ) ;
#108 = ORIENTED_EDGE ( 'NONE', *, *, #9, .T. ) ;
#109 = ORIENTED_EDGE ( 'NONE', *, *, #136, .T. ) ;
#110 = ORIENTED_EDGE ( 'NONE', *, *, #52, .T. ) ;
#111 = CARTESIAN_POINT ( 'NONE',  ( -40.49999999999999300, 4.000000000000000000, 32.00000000000000000 ) ) ;
#112 = ORIENTED_EDGE ( 'NONE', *, *, #20, .T. ) ;
#113 = ORIENTED_EDGE ( 'NONE', *, *, #32, .F. ) ;
#114 = ORIENTED_EDGE ( 'NONE', *, *, #24, .F. ) ;
#115 = ORIENTED_EDGE ( 'NONE', *, *, #29, .F. ) ;
#116 = AXIS2_PLACEMENT_3D ( 'NONE', #186, #196, #205 ) ;
#117 = ORIENTED_EDGE ( 'NONE', *, *, #18, .F. ) ;
#118 = AXIS2_PLACEMENT_3D ( 'NONE', #171, #173, #172 ) ;
#119 = CLOSED_SHELL ( 'NONE', ( #90, #96, #99, #89, #98, #88 ) ) ;
#120 = VERTEX_POINT ( 'NONE', #5 ) ;
#121 = UNCERTAINTY_MEASURE_WITH_UNIT (LENGTH_MEASURE( 1.000000000000000100E-005 ), #191, 'distance_accuracy_value', 'NONE');
#122 = PLANE ( 'NONE',  #19 ) ;
#123 = VERTEX_POINT ( 'NONE', #178 ) ;
#124 = CARTESIAN_POINT ( 'NONE',  ( -40.49999999999999300, 4.000000000000000000, -32.00000000000000000 ) ) ;
#125 = PRODUCT_DEFINITION_CONTEXT ( 'detailed design', #149, 'design' ) ;
#126 = PRODUCT_RELATED_PRODUCT_CATEGORY ( 'part', '', ( #23 ) ) ;
#127 = DIRECTION ( 'NONE',  ( 0.0000000000000000000, 1.000000000000000000, 0.0000000000000000000 ) ) ;
#128 =( NAMED_UNIT ( * ) PLANE_ANGLE_UNIT ( ) SI_UNIT ( $, .RADIAN. ) );
#129 =( LENGTH_UNIT ( ) NAMED_UNIT ( * ) SI_UNIT ( .MILLI., .METRE. ) );
#130 = CARTESIAN_POINT ( 'NONE',  ( 0.0000000000000000000, 0.0000000000000000000, 0.0000000000000000000 ) ) ;
#131 = DIRECTION ( 'NONE',  ( 0.0000000000000000000, 0.0000000000000000000, 1.000000000000000000 ) ) ;
#132 = CARTESIAN_POINT ( 'NONE',  ( -40.49999999999999300, 0.0000000000000000000, 0.0000000000000000000 ) ) ;
#133 = VERTEX_POINT ( 'NONE', #26 ) ;
#134 = DIRECTION ( 'NONE',  ( 0.0000000000000000000, 1.000000000000000000, 0.0000000000000000000 ) ) ;
#135 = PRODUCT_DEFINITION_FORMATION_WITH_SPECIFIED_SOURCE ( 'ANY', '', #23, .NOT_KNOWN. ) ;
#136 = EDGE_CURVE ( 'NONE', #83, #139, #44, .T. ) ;
#137 = VERTEX_POINT ( 'NONE', #166 ) ;
#138 = DIRECTION ( 'NONE',  ( -0.0000000000000000000, -1.000000000000000000, -0.0000000000000000000 ) ) ;
#139 = VERTEX_POINT ( 'NONE', #198 ) ;
#140 = SURFACE_STYLE_USAGE ( .BOTH. , #40 ) ;
#141 = PRODUCT_DEFINITION ( 'UNKNOWN', '', #135, #125 ) ;
#142 = CARTESIAN_POINT ( 'NONE',  ( -40.49999999999999300, 4.000000000000000000, 32.00000000000000000 ) ) ;
#143 = PRODUCT_CONTEXT ( 'NONE', #152, 'mechanical' ) ;
#144 = UNCERTAINTY_MEASURE_WITH_UNIT (LENGTH_MEASURE( 1.000000000000000100E-005 ), #129, 'distance_accuracy_value', 'NONE');
#145 = DIRECTION ( 'NONE',  ( 1.000000000000000000, 0.0000000000000000000, 0.0000000000000000000 ) ) ;
#146 = DIRECTION ( 'NONE',  ( 0.0000000000000000000, 0.0000000000000000000, 1.000000000000000000 ) ) ;
#147 = PLANE ( 'NONE',  #21 ) ;
#148 = APPLICATION_PROTOCOL_DEFINITION ( 'draft international standard', 'automotive_design', 1998, #149 ) ;
#149 = APPLICATION_CONTEXT ( 'automotive_design' ) ;
#150 = ADVANCED_BREP_SHAPE_REPRESENTATION ( '6290174', ( #10, #156 ), #30 ) ;
#151 = FILL_AREA_STYLE_COLOUR ( '', #41 ) ;
#152 = APPLICATION_CONTEXT ( 'automotive_design' ) ;
#153 = FILL_AREA_STYLE ('',( #151 ) ) ;
#154 = DIRECTION ( 'NONE',  ( 0.0000000000000000000, 0.0000000000000000000, -1.000000000000000000 ) ) ;
#155 = DIRECTION ( 'NONE',  ( 0.0000000000000000000, -0.0000000000000000000, 1.000000000000000000 ) ) ;
#156 = AXIS2_PLACEMENT_3D ( 'NONE', #130, #146, #145 ) ;
#157 = DIRECTION ( 'NONE',  ( -0.0000000000000000000, -1.000000000000000000, -0.0000000000000000000 ) ) ;
#158 = SURFACE_SIDE_STYLE ('',( #76 ) ) ;
#159 = SURFACE_STYLE_USAGE ( .BOTH. , #158 ) ;
#160 = AXIS2_PLACEMENT_3D ( 'NONE', #181, #190, #204 ) ;
#161 = FILL_AREA_STYLE ('',( #179 ) ) ;
#162 = VERTEX_POINT ( 'NONE', #193 ) ;
#163 =( LENGTH_UNIT ( ) NAMED_UNIT ( * ) SI_UNIT ( .MILLI., .METRE. ) );
#164 =( NAMED_UNIT ( * ) SI_UNIT ( $, .STERADIAN. ) SOLID_ANGLE_UNIT ( ) );
#165 = DIRECTION ( 'NONE',  ( 1.000000000000000000, 0.0000000000000000000, 0.0000000000000000000 ) ) ;
#166 = CARTESIAN_POINT ( 'NONE',  ( 40.49999999999999300, 0.0000000000000000000, 32.00000000000000000 ) ) ;
#167 = DIRECTION ( 'NONE',  ( 1.000000000000000000, 0.0000000000000000000, 0.0000000000000000000 ) ) ;
#168 = CARTESIAN_POINT ( 'NONE',  ( -40.49999999999999300, 4.000000000000000000, -32.00000000000000000 ) ) ;
#169 = CARTESIAN_POINT ( 'NONE',  ( -40.49999999999999300, 0.0000000000000000000, 0.0000000000000000000 ) ) ;
#170 = CARTESIAN_POINT ( 'NONE',  ( 40.49999999999999300, 0.0000000000000000000, -32.00000000000000000 ) ) ;
#171 = CARTESIAN_POINT ( 'NONE',  ( 40.49999999999999300, 4.000000000000000000, 0.0000000000000000000 ) ) ;
#172 = DIRECTION ( 'NONE',  ( 0.0000000000000000000, 0.0000000000000000000, 1.000000000000000000 ) ) ;
#173 = DIRECTION ( 'NONE',  ( 0.0000000000000000000, 1.000000000000000000, 0.0000000000000000000 ) ) ;
#174 = CARTESIAN_POINT ( 'NONE',  ( -40.49999999999999300, 4.000000000000000000, -32.00000000000000000 ) ) ;
#175 = CARTESIAN_POINT ( 'NONE',  ( -40.49999999999999300, 0.0000000000000000000, 32.00000000000000000 ) ) ;
#176 = PLANE ( 'NONE',  #45 ) ;
#177 = DIRECTION ( 'NONE',  ( -1.000000000000000000, 0.0000000000000000000, -0.0000000000000000000 ) ) ;
#178 = CARTESIAN_POINT ( 'NONE',  ( 40.49999999999999300, 4.000000000000000000, -32.00000000000000000 ) ) ;
#179 = FILL_AREA_STYLE_COLOUR ( '', #73 ) ;
#180 = EDGE_CURVE ( 'NONE', #139, #137, #50, .T. ) ;
#181 = CARTESIAN_POINT ( 'NONE',  ( 40.49999999999999300, 0.0000000000000000000, 0.0000000000000000000 ) ) ;
#182 = PLANE ( 'NONE',  #34 ) ;
#183 = DIRECTION ( 'NONE',  ( 1.000000000000000000, 0.0000000000000000000, -0.0000000000000000000 ) ) ;
#184 =( NAMED_UNIT ( * ) PLANE_ANGLE_UNIT ( ) SI_UNIT ( $, .RADIAN. ) );
#185 = EDGE_CURVE ( 'NONE', #83, #133, #46, .T. ) ;
#186 = CARTESIAN_POINT ( 'NONE',  ( -40.49999999999999300, 4.000000000000000000, 0.0000000000000000000 ) ) ;
#187 = DIRECTION ( 'NONE',  ( 0.0000000000000000000, 0.0000000000000000000, -1.000000000000000000 ) ) ;
#188 = AXIS2_PLACEMENT_3D ( 'NONE', #36, #189, #154 ) ;
#189 = DIRECTION ( 'NONE',  ( -0.0000000000000000000, -1.000000000000000000, -0.0000000000000000000 ) ) ;
#190 = DIRECTION ( 'NONE',  ( 0.0000000000000000000, 1.000000000000000000, 0.0000000000000000000 ) ) ;
#191 =( LENGTH_UNIT ( ) NAMED_UNIT ( * ) SI_UNIT ( .MILLI., .METRE. ) );
#192 = CARTESIAN_POINT ( 'NONE',  ( 40.49999999999999300, 4.000000000000000000, -32.00000000000000000 ) ) ;
#193 = CARTESIAN_POINT ( 'NONE',  ( -40.49999999999999300, 4.000000000000000000, -32.00000000000000000 ) ) ;
#194 = DIRECTION ( 'NONE',  ( 0.0000000000000000000, 0.0000000000000000000, 1.000000000000000000 ) ) ;
#195 = DIRECTION ( 'NONE',  ( 0.0000000000000000000, 1.000000000000000000, 0.0000000000000000000 ) ) ;
#196 = DIRECTION ( 'NONE',  ( -0.0000000000000000000, -1.000000000000000000, -0.0000000000000000000 ) ) ;
#197 =( GEOMETRIC_REPRESENTATION_CONTEXT ( 3 ) GLOBAL_UNCERTAINTY_ASSIGNED_CONTEXT ( ( #121 ) ) GLOBAL_UNIT_ASSIGNED_CONTEXT ( ( #191, #184, #200 ) ) REPRESENTATION_CONTEXT ( 'NONE', 'WORKASPACE' ) );
#198 = CARTESIAN_POINT ( 'NONE',  ( 40.49999999999999300, 4.000000000000000000, 32.00000000000000000 ) ) ;
#199 = DIRECTION ( 'NONE',  ( 0.0000000000000000000, -0.0000000000000000000, 1.000000000000000000 ) ) ;
#200 =( NAMED_UNIT ( * ) SI_UNIT ( $, .STERADIAN. ) SOLID_ANGLE_UNIT ( ) );
#201 = CARTESIAN_POINT ( 'NONE',  ( 40.49999999999999300, 4.000000000000000000, 32.00000000000000000 ) ) ;
#202 = DIRECTION ( 'NONE',  ( -0.0000000000000000000, -1.000000000000000000, -0.0000000000000000000 ) ) ;
#203 = CARTESIAN_POINT ( 'NONE',  ( -40.49999999999999300, 4.000000000000000000, 0.0000000000000000000 ) ) ;
#204 = DIRECTION ( 'NONE',  ( 0.0000000000000000000, 0.0000000000000000000, 1.000000000000000000 ) ) ;
#205 = DIRECTION ( 'NONE',  ( 0.0000000000000000000, 0.0000000000000000000, -1.000000000000000000 ) ) ;
#206 = DIRECTION ( 'NONE',  ( -1.000000000000000000, -0.0000000000000000000, -0.0000000000000000000 ) ) ;
ENDSEC;
END-ISO-10303-21;
