ISO-10303-21;
HEADER;
FILE_DESCRIPTION (( 'STEP AP214' ),
    '1' );
FILE_NAME ('6290196.stp',
    '2016-06-29T07:18:43',
    ( '' ),
    ( '' ),
    'SwSTEP 2.0',
    'SolidWorks 2014',
    '' );
FILE_SCHEMA (( 'AUTOMOTIVE_DESIGN' ));
ENDSEC;

DATA;
#1 = DIRECTION ( 'NONE',  ( 0.0000000000000000000, 1.000000000000000000, 0.0000000000000000000 ) ) ;
#2 = PRODUCT_CONTEXT ( 'NONE', #166, 'mechanical' ) ;
#3 = AXIS2_PLACEMENT_3D ( 'NONE', #82, #212, #106 ) ;
#4 = DIRECTION ( 'NONE',  ( -0.0000000000000000000, -1.000000000000000000, -0.0000000000000000000 ) ) ;
#5 = DIRECTION ( 'NONE',  ( 0.0000000000000000000, -0.0000000000000000000, 1.000000000000000000 ) ) ;
#6 =( LENGTH_UNIT ( ) NAMED_UNIT ( * ) SI_UNIT ( .MILLI., .METRE. ) );
#7 =( NAMED_UNIT ( * ) PLANE_ANGLE_UNIT ( ) SI_UNIT ( $, .RADIAN. ) );
#8 = DIRECTION ( 'NONE',  ( 0.0000000000000000000, 1.000000000000000000, 0.0000000000000000000 ) ) ;
#9 = ADVANCED_FACE ( 'NONE', ( #213, #132 ), #126, .F. ) ;
#10 = CLOSED_SHELL ( 'NONE', ( #237, #11, #13, #9, #243, #22 ) ) ;
#11 = ADVANCED_FACE ( 'NONE', ( #136 ), #61, .T. ) ;
#12 = COLOUR_RGB ( '',0.7529411764705882200, 0.7529411764705882200, 0.7529411764705882200 ) ;
#13 = ADVANCED_FACE ( 'NONE', ( #220, #69 ), #33, .T. ) ;
#14 = ORIENTED_EDGE ( 'NONE', *, *, #151, .F. ) ;
#15 = CIRCLE ( 'NONE', #184, 7.000000000000000000 ) ;
#16 = DIRECTION ( 'NONE',  ( 1.000000000000000000, 0.0000000000000000000, 0.0000000000000000000 ) ) ;
#17 = APPLICATION_PROTOCOL_DEFINITION ( 'draft international standard', 'automotive_design', 1998, #198 ) ;
#18 = CARTESIAN_POINT ( 'NONE',  ( -9.254623835349743600, -25.36017243776944600, 9.500000000000003600 ) ) ;
#19 = PRODUCT ( '6290196', '6290196', '', ( #81 ) ) ;
#20 = DIRECTION ( 'NONE',  ( 1.000000000000000000, 0.0000000000000000000, 0.0000000000000000000 ) ) ;
#21 =( NAMED_UNIT ( * ) SI_UNIT ( $, .STERADIAN. ) SOLID_ANGLE_UNIT ( ) );
#22 = ADVANCED_FACE ( 'NONE', ( #71 ), #139, .F. ) ;
#23 =( GEOMETRIC_REPRESENTATION_CONTEXT ( 3 ) GLOBAL_UNCERTAINTY_ASSIGNED_CONTEXT ( ( #94 ) ) GLOBAL_UNIT_ASSIGNED_CONTEXT ( ( #250, #57, #120 ) ) REPRESENTATION_CONTEXT ( 'NONE', 'WORKASPACE' ) );
#24 = AXIS2_PLACEMENT_3D ( 'NONE', #113, #4, #240 ) ;
#25 = AXIS2_PLACEMENT_3D ( 'NONE', #102, #149, #73 ) ;
#26 = AXIS2_PLACEMENT_3D ( 'NONE', #119, #74, #145 ) ;
#27 = AXIS2_PLACEMENT_3D ( 'NONE', #143, #157, #42 ) ;
#28 = AXIS2_PLACEMENT_3D ( 'NONE', #112, #241, #92 ) ;
#29 = SHAPE_REPRESENTATION ( '6290196', ( #179, #171 ), #174 ) ;
#30 = AXIS2_PLACEMENT_3D ( 'NONE', #142, #200, #90 ) ;
#31 = PRODUCT_RELATED_PRODUCT_CATEGORY ( 'part', '', ( #91 ) ) ;
#32 = MECHANICAL_DESIGN_GEOMETRIC_PRESENTATION_REPRESENTATION (  '', ( #47 ), #23 ) ;
#33 = PLANE ( 'NONE',  #72 ) ;
#34 = STYLED_ITEM ( 'NONE', ( #98 ), #242 ) ;
#35 = DIRECTION ( 'NONE',  ( -0.0000000000000000000, -1.000000000000000000, -0.0000000000000000000 ) ) ;
#36 = MECHANICAL_DESIGN_GEOMETRIC_PRESENTATION_REPRESENTATION (  '', ( #34 ), #45 ) ;
#37 = DIRECTION ( 'NONE',  ( 0.0000000000000000000, -0.0000000000000000000, 1.000000000000000000 ) ) ;
#38 = PRODUCT_DEFINITION_FORMATION_WITH_SPECIFIED_SOURCE ( 'ANY', '', #91, .NOT_KNOWN. ) ;
#39 = APPLICATION_CONTEXT ( 'automotive_design' ) ;
#40 = DIRECTION ( 'NONE',  ( 0.0000000000000000000, 1.000000000000000000, 0.0000000000000000000 ) ) ;
#41 = AXIS2_PLACEMENT_3D ( 'NONE', #233, #70, #196 ) ;
#42 = DIRECTION ( 'NONE',  ( 0.0000000000000000000, 0.0000000000000000000, 1.000000000000000000 ) ) ;
#43 = PRODUCT_DEFINITION_SHAPE ( 'NONE', 'NONE',  #251 ) ;
#44 = VERTEX_POINT ( 'NONE', #161 ) ;
#45 =( GEOMETRIC_REPRESENTATION_CONTEXT ( 3 ) GLOBAL_UNCERTAINTY_ASSIGNED_CONTEXT ( ( #206 ) ) GLOBAL_UNIT_ASSIGNED_CONTEXT ( ( #144, #63, #108 ) ) REPRESENTATION_CONTEXT ( 'NONE', 'WORKASPACE' ) );
#46 = CARTESIAN_POINT ( 'NONE',  ( 0.0000000000000000000, 0.0000000000000000000, -7.000000000000000000 ) ) ;
#47 = STYLED_ITEM ( 'NONE', ( #67 ), #86 ) ;
#48 = AXIS2_PLACEMENT_3D ( 'NONE', #164, #197, #137 ) ;
#49 = FILL_AREA_STYLE ('',( #234 ) ) ;
#50 = FILL_AREA_STYLE_COLOUR ( '', #12 ) ;
#51 = PRODUCT_RELATED_PRODUCT_CATEGORY ( 'part', '', ( #19 ) ) ;
#52 = VERTEX_POINT ( 'NONE', #209 ) ;
#53 = ORIENTED_EDGE ( 'NONE', *, *, #204, .F. ) ;
#54 = PRODUCT_DEFINITION_CONTEXT ( 'detailed design', #39, 'design' ) ;
#55 =( NAMED_UNIT ( * ) PLANE_ANGLE_UNIT ( ) SI_UNIT ( $, .RADIAN. ) );
#56 =( GEOMETRIC_REPRESENTATION_CONTEXT ( 3 ) GLOBAL_UNCERTAINTY_ASSIGNED_CONTEXT ( ( #231 ) ) GLOBAL_UNIT_ASSIGNED_CONTEXT ( ( #6, #55, #21 ) ) REPRESENTATION_CONTEXT ( 'NONE', 'WORKASPACE' ) );
#57 =( NAMED_UNIT ( * ) PLANE_ANGLE_UNIT ( ) SI_UNIT ( $, .RADIAN. ) );
#58 = DIRECTION ( 'NONE',  ( 1.000000000000000000, 0.0000000000000000000, 0.0000000000000000000 ) ) ;
#59 = PRODUCT_DEFINITION ( 'UNKNOWN', '', #169, #54 ) ;
#60 = SURFACE_SIDE_STYLE ('',( #110 ) ) ;
#61 = CYLINDRICAL_SURFACE ( 'NONE', #24, 175.0000000000000000 ) ;
#62 = CARTESIAN_POINT ( 'NONE',  ( 0.0000000000000000000, 0.0000000000000000000, 0.0000000000000000000 ) ) ;
#63 =( NAMED_UNIT ( * ) PLANE_ANGLE_UNIT ( ) SI_UNIT ( $, .RADIAN. ) );
#64 = PRODUCT_DEFINITION ( 'UNKNOWN', '', #38, #129 ) ;
#65 = CARTESIAN_POINT ( 'NONE',  ( 8.572527594031473200E-016, 8.000000000000000000, 7.000000000000000000 ) ) ;
#66 = UNCERTAINTY_MEASURE_WITH_UNIT (LENGTH_MEASURE( 1.000000000000000100E-005 ), #214, 'distance_accuracy_value', 'NONE');
#67 = PRESENTATION_STYLE_ASSIGNMENT (( #101 ) ) ;
#68 = EDGE_LOOP ( 'NONE', ( #53, #188, #180, #192 ) ) ;
#69 = FACE_BOUND ( 'NONE', #173, .T. ) ;
#70 = DIRECTION ( 'NONE',  ( -0.0000000000000000000, -1.000000000000000000, -0.0000000000000000000 ) ) ;
#71 = FACE_OUTER_BOUND ( 'NONE', #183, .T. ) ;
#72 = AXIS2_PLACEMENT_3D ( 'NONE', #135, #1, #37 ) ;
#73 = DIRECTION ( 'NONE',  ( 0.0000000000000000000, 0.0000000000000000000, 1.000000000000000000 ) ) ;
#74 = DIRECTION ( 'NONE',  ( -0.0000000000000000000, -1.000000000000000000, -0.0000000000000000000 ) ) ;
#75 = PRESENTATION_LAYER_ASSIGNMENT (  '', '', ( #34 ) ) ;
#76 = ORIENTED_EDGE ( 'NONE', *, *, #162, .T. ) ;
#77 = CARTESIAN_POINT ( 'NONE',  ( 0.0000000000000000000, 0.0000000000000000000, -175.0000000000000000 ) ) ;
#78 = AXIS2_PLACEMENT_3D ( 'NONE', #62, #40, #124 ) ;
#79 = EDGE_CURVE ( 'NONE', #195, #109, #83, .T. ) ;
#80 = CIRCLE ( 'NONE', #27, 7.000000000000000000 ) ;
#81 = PRODUCT_CONTEXT ( 'NONE', #198, 'mechanical' ) ;
#82 = CARTESIAN_POINT ( 'NONE',  ( 0.0000000000000000000, 0.0000000000000000000, 0.0000000000000000000 ) ) ;
#83 = LINE ( 'NONE', #97, #84 ) ;
#84 = VECTOR ( 'NONE', #245, 1000.000000000000000 ) ;
#85 = SHAPE_REPRESENTATION ( '002414T1_Standard', ( #93 ), #56 ) ;
#86 = ADVANCED_BREP_SHAPE_REPRESENTATION ( '', ( #242, #93 ), #56 ) ;
#87 = CARTESIAN_POINT ( 'NONE',  ( 0.0000000000000000000, 8.000000000000000000, -7.000000000000000000 ) ) ;
#88 = ORIENTED_EDGE ( 'NONE', *, *, #204, .T. ) ;
#89 = ITEM_DEFINED_TRANSFORMATION ( 'NONE', 'NONE', #171,  #93 ) ;
#90 = DIRECTION ( 'NONE',  ( 0.0000000000000000000, 0.0000000000000000000, 1.000000000000000000 ) ) ;
#91 = PRODUCT ( '002414T1_Standard', '002414T1_Standard', '', ( #2 ) ) ;
#92 = DIRECTION ( 'NONE',  ( 0.0000000000000000000, 0.0000000000000000000, 1.000000000000000000 ) ) ;
#93 = AXIS2_PLACEMENT_3D ( 'NONE', #99, #122, #16 ) ;
#94 = UNCERTAINTY_MEASURE_WITH_UNIT (LENGTH_MEASURE( 1.000000000000000100E-005 ), #250, 'distance_accuracy_value', 'NONE');
#95 = ORIENTED_EDGE ( 'NONE', *, *, #249, .T. ) ;
#96 = CARTESIAN_POINT ( 'NONE',  ( 0.0000000000000000000, 8.000000000000000000, -175.0000000000000000 ) ) ;
#97 = CARTESIAN_POINT ( 'NONE',  ( 0.0000000000000000000, 8.000000000000000000, -7.000000000000000000 ) ) ;
#98 = PRESENTATION_STYLE_ASSIGNMENT (( #216 ) ) ;
#99 = CARTESIAN_POINT ( 'NONE',  ( 0.0000000000000000000, 0.0000000000000000000, 0.0000000000000000000 ) ) ;
#100 = CYLINDRICAL_SURFACE ( 'NONE', #247, 7.000000000000000000 ) ;
#101 = SURFACE_STYLE_USAGE ( .BOTH. , #170 ) ;
#102 = CARTESIAN_POINT ( 'NONE',  ( 0.0000000000000000000, 8.000000000000000000, 0.0000000000000000000 ) ) ;
#103 = VECTOR ( 'NONE', #156, 1000.000000000000000 ) ;
#104 = DIRECTION ( 'NONE',  ( 0.0000000000000000000, 1.000000000000000000, 1.224606353822377300E-016 ) ) ;
#105 = CYLINDRICAL_SURFACE ( 'NONE', #26, 175.0000000000000000 ) ;
#106 = DIRECTION ( 'NONE',  ( 0.0000000000000000000, 0.0000000000000000000, 1.000000000000000000 ) ) ;
#107 = DIRECTION ( 'NONE',  ( 0.0000000000000000000, 0.0000000000000000000, 1.000000000000000000 ) ) ;
#108 =( NAMED_UNIT ( * ) SI_UNIT ( $, .STERADIAN. ) SOLID_ANGLE_UNIT ( ) );
#109 = VERTEX_POINT ( 'NONE', #46 ) ;
#110 = SURFACE_STYLE_FILL_AREA ( #228 ) ;
#111 = VERTEX_POINT ( 'NONE', #96 ) ;
#112 = CARTESIAN_POINT ( 'NONE',  ( 0.0000000000000000000, 8.000000000000000000, 0.0000000000000000000 ) ) ;
#113 = CARTESIAN_POINT ( 'NONE',  ( 0.0000000000000000000, 8.000000000000000000, 0.0000000000000000000 ) ) ;
#114 = EDGE_LOOP ( 'NONE', ( #181, #76, #133, #175 ) ) ;
#115 = ORIENTED_EDGE ( 'NONE', *, *, #187, .F. ) ;
#116 = APPLICATION_PROTOCOL_DEFINITION ( 'draft international standard', 'automotive_design', 1998, #39 ) ;
#117 =( NAMED_UNIT ( * ) SI_UNIT ( $, .STERADIAN. ) SOLID_ANGLE_UNIT ( ) );
#118 = CIRCLE ( 'NONE', #78, 7.000000000000000000 ) ;
#119 = CARTESIAN_POINT ( 'NONE',  ( 0.0000000000000000000, 8.000000000000000000, 0.0000000000000000000 ) ) ;
#120 =( NAMED_UNIT ( * ) SI_UNIT ( $, .STERADIAN. ) SOLID_ANGLE_UNIT ( ) );
#121 = PRODUCT_DEFINITION_SHAPE ( 'NONE', 'NONE',  #64 ) ;
#122 = DIRECTION ( 'NONE',  ( 0.0000000000000000000, 0.0000000000000000000, 1.000000000000000000 ) ) ;
#123 = EDGE_LOOP ( 'NONE', ( #185, #153 ) ) ;
#124 = DIRECTION ( 'NONE',  ( 0.0000000000000000000, 0.0000000000000000000, 1.000000000000000000 ) ) ;
#125 = SHAPE_DEFINITION_REPRESENTATION ( #224, #29 ) ;
#126 = PLANE ( 'NONE',  #203 ) ;
#127 = SHAPE_REPRESENTATION_RELATIONSHIP ( 'NONE' , 'NONE' ,  #85, #86 ) ;
#128 = VERTEX_POINT ( 'NONE', #77 ) ;
#129 = PRODUCT_DEFINITION_CONTEXT ( 'detailed design', #167, 'design' ) ;
#130 = ORIENTED_EDGE ( 'NONE', *, *, #154, .T. ) ;
#131 = EDGE_LOOP ( 'NONE', ( #217, #146, #193, #130 ) ) ;
#132 = FACE_BOUND ( 'NONE', #191, .T. ) ;
#133 = ORIENTED_EDGE ( 'NONE', *, *, #152, .F. ) ;
#134 = VERTEX_POINT ( 'NONE', #207 ) ;
#135 = CARTESIAN_POINT ( 'NONE',  ( 0.0000000000000000000, 8.000000000000000000, 0.0000000000000000000 ) ) ;
#136 = FACE_OUTER_BOUND ( 'NONE', #68, .T. ) ;
#137 = DIRECTION ( 'NONE',  ( 0.0000000000000000000, 0.0000000000000000000, 1.000000000000000000 ) ) ;
#138 = VECTOR ( 'NONE', #246, 1000.000000000000000 ) ;
#139 = CYLINDRICAL_SURFACE ( 'NONE', #41, 7.000000000000000000 ) ;
#140 = EDGE_LOOP ( 'NONE', ( #95, #88 ) ) ;
#141 = DIRECTION ( 'NONE',  ( 0.0000000000000000000, 0.0000000000000000000, 1.000000000000000000 ) ) ;
#142 = CARTESIAN_POINT ( 'NONE',  ( 0.0000000000000000000, 0.0000000000000000000, 0.0000000000000000000 ) ) ;
#143 = CARTESIAN_POINT ( 'NONE',  ( 0.0000000000000000000, 0.0000000000000000000, 0.0000000000000000000 ) ) ;
#144 =( LENGTH_UNIT ( ) NAMED_UNIT ( * ) SI_UNIT ( .MILLI., .METRE. ) );
#145 = DIRECTION ( 'NONE',  ( 0.0000000000000000000, 0.0000000000000000000, -1.000000000000000000 ) ) ;
#146 = ORIENTED_EDGE ( 'NONE', *, *, #249, .F. ) ;
#147 = FACE_OUTER_BOUND ( 'NONE', #114, .T. ) ;
#148 = EDGE_CURVE ( 'NONE', #134, #52, #160, .T. ) ;
#149 = DIRECTION ( 'NONE',  ( 0.0000000000000000000, 1.000000000000000000, 0.0000000000000000000 ) ) ;
#150 = EDGE_CURVE ( 'NONE', #182, #195, #202, .T. ) ;
#151 = EDGE_CURVE ( 'NONE', #195, #182, #15, .T. ) ;
#152 = EDGE_CURVE ( 'NONE', #109, #44, #80, .T. ) ;
#153 = ORIENTED_EDGE ( 'NONE', *, *, #159, .F. ) ;
#154 = EDGE_CURVE ( 'NONE', #128, #52, #215, .T. ) ;
#155 = ORIENTED_EDGE ( 'NONE', *, *, #79, .T. ) ;
#156 = DIRECTION ( 'NONE',  ( -0.0000000000000000000, -1.000000000000000000, -0.0000000000000000000 ) ) ;
#157 = DIRECTION ( 'NONE',  ( 0.0000000000000000000, 1.000000000000000000, 0.0000000000000000000 ) ) ;
#158 = EDGE_CURVE ( 'NONE', #111, #128, #176, .T. ) ;
#159 = EDGE_CURVE ( 'NONE', #52, #128, #239, .T. ) ;
#160 = LINE ( 'NONE', #205, #138 ) ;
#161 = CARTESIAN_POINT ( 'NONE',  ( 8.572527594031473200E-016, 0.0000000000000000000, 7.000000000000000000 ) ) ;
#162 = EDGE_CURVE ( 'NONE', #182, #44, #218, .T. ) ;
#163 = VECTOR ( 'NONE', #219, 1000.000000000000000 ) ;
#164 = CARTESIAN_POINT ( 'NONE',  ( 0.0000000000000000000, 8.000000000000000000, 0.0000000000000000000 ) ) ;
#165 = APPLICATION_PROTOCOL_DEFINITION ( 'draft international standard', 'automotive_design', 1998, #166 ) ;
#166 = APPLICATION_CONTEXT ( 'automotive_design' ) ;
#167 = APPLICATION_CONTEXT ( 'automotive_design' ) ;
#168 = ORIENTED_EDGE ( 'NONE', *, *, #150, .T. ) ;
#169 = PRODUCT_DEFINITION_FORMATION_WITH_SPECIFIED_SOURCE ( 'ANY', '', #19, .NOT_KNOWN. ) ;
#170 = SURFACE_SIDE_STYLE ('',( #225 ) ) ;
#171 = AXIS2_PLACEMENT_3D ( 'NONE', #18, #104, #227 ) ;
#172 = CARTESIAN_POINT ( 'NONE',  ( 0.0000000000000000000, 8.000000000000000000, 0.0000000000000000000 ) ) ;
#173 = EDGE_LOOP ( 'NONE', ( #14, #235 ) ) ;
#174 =( GEOMETRIC_REPRESENTATION_CONTEXT ( 3 ) GLOBAL_UNCERTAINTY_ASSIGNED_CONTEXT ( ( #66 ) ) GLOBAL_UNIT_ASSIGNED_CONTEXT ( ( #214, #7, #117 ) ) REPRESENTATION_CONTEXT ( 'NONE', 'WORKASPACE' ) );
#175 = ORIENTED_EDGE ( 'NONE', *, *, #79, .F. ) ;
#176 = LINE ( 'NONE', #178, #163 ) ;
#177 = COLOUR_RGB ( '',0.7529411764705882200, 0.7529411764705882200, 0.7529411764705882200 ) ;
#178 = CARTESIAN_POINT ( 'NONE',  ( 0.0000000000000000000, 8.000000000000000000, -175.0000000000000000 ) ) ;
#179 = AXIS2_PLACEMENT_3D ( 'NONE', #194, #236, #20 ) ;
#180 = ORIENTED_EDGE ( 'NONE', *, *, #159, .T. ) ;
#181 = ORIENTED_EDGE ( 'NONE', *, *, #151, .T. ) ;
#182 = VERTEX_POINT ( 'NONE', #65 ) ;
#183 = EDGE_LOOP ( 'NONE', ( #226, #168, #155, #115 ) ) ;
#184 = AXIS2_PLACEMENT_3D ( 'NONE', #201, #8, #141 ) ;
#185 = ORIENTED_EDGE ( 'NONE', *, *, #154, .F. ) ;
#186 = FACE_OUTER_BOUND ( 'NONE', #131, .T. ) ;
#187 = EDGE_CURVE ( 'NONE', #44, #109, #118, .T. ) ;
#188 = ORIENTED_EDGE ( 'NONE', *, *, #148, .T. ) ;
#189 = AXIS2_PLACEMENT_3D ( 'NONE', #210, #107, #58 ) ;
#190 = DIRECTION ( 'NONE',  ( 0.0000000000000000000, 0.0000000000000000000, -1.000000000000000000 ) ) ;
#191 = EDGE_LOOP ( 'NONE', ( #211, #229 ) ) ;
#192 = ORIENTED_EDGE ( 'NONE', *, *, #158, .F. ) ;
#193 = ORIENTED_EDGE ( 'NONE', *, *, #158, .T. ) ;
#194 = CARTESIAN_POINT ( 'NONE',  ( 0.0000000000000000000, 0.0000000000000000000, 0.0000000000000000000 ) ) ;
#195 = VERTEX_POINT ( 'NONE', #87 ) ;
#196 = DIRECTION ( 'NONE',  ( 0.0000000000000000000, 0.0000000000000000000, -1.000000000000000000 ) ) ;
#197 = DIRECTION ( 'NONE',  ( 0.0000000000000000000, 1.000000000000000000, 0.0000000000000000000 ) ) ;
#198 = APPLICATION_CONTEXT ( 'automotive_design' ) ;
#199 = SHAPE_DEFINITION_REPRESENTATION ( #121, #85 ) ;
#200 = DIRECTION ( 'NONE',  ( 0.0000000000000000000, 1.000000000000000000, 0.0000000000000000000 ) ) ;
#201 = CARTESIAN_POINT ( 'NONE',  ( 0.0000000000000000000, 8.000000000000000000, 0.0000000000000000000 ) ) ;
#202 = CIRCLE ( 'NONE', #28, 7.000000000000000000 ) ;
#203 = AXIS2_PLACEMENT_3D ( 'NONE', #222, #230, #5 ) ;
#204 = EDGE_CURVE ( 'NONE', #134, #111, #223, .T. ) ;
#205 = CARTESIAN_POINT ( 'NONE',  ( 2.143131898507867900E-014, 8.000000000000000000, 175.0000000000000000 ) ) ;
#206 = UNCERTAINTY_MEASURE_WITH_UNIT (LENGTH_MEASURE( 1.000000000000000100E-005 ), #144, 'distance_accuracy_value', 'NONE');
#207 = CARTESIAN_POINT ( 'NONE',  ( 2.143131898507867900E-014, 8.000000000000000000, 175.0000000000000000 ) ) ;
#208 = PRESENTATION_LAYER_ASSIGNMENT (  '', '', ( #47 ) ) ;
#209 = CARTESIAN_POINT ( 'NONE',  ( 2.143131898507867900E-014, 0.0000000000000000000, 175.0000000000000000 ) ) ;
#210 = CARTESIAN_POINT ( 'NONE',  ( 0.0000000000000000000, 0.0000000000000000000, 0.0000000000000000000 ) ) ;
#211 = ORIENTED_EDGE ( 'NONE', *, *, #152, .T. ) ;
#212 = DIRECTION ( 'NONE',  ( 0.0000000000000000000, 1.000000000000000000, 0.0000000000000000000 ) ) ;
#213 = FACE_OUTER_BOUND ( 'NONE', #123, .T. ) ;
#214 =( LENGTH_UNIT ( ) NAMED_UNIT ( * ) SI_UNIT ( .MILLI., .METRE. ) );
#215 = CIRCLE ( 'NONE', #30, 175.0000000000000000 ) ;
#216 = SURFACE_STYLE_USAGE ( .BOTH. , #60 ) ;
#217 = ORIENTED_EDGE ( 'NONE', *, *, #148, .F. ) ;
#218 = LINE ( 'NONE', #244, #103 ) ;
#219 = DIRECTION ( 'NONE',  ( -0.0000000000000000000, -1.000000000000000000, -0.0000000000000000000 ) ) ;
#220 = FACE_OUTER_BOUND ( 'NONE', #140, .T. ) ;
#221 = CONTEXT_DEPENDENT_SHAPE_REPRESENTATION ( #232, #43 ) ;
#222 = CARTESIAN_POINT ( 'NONE',  ( 0.0000000000000000000, 0.0000000000000000000, 0.0000000000000000000 ) ) ;
#223 = CIRCLE ( 'NONE', #25, 175.0000000000000000 ) ;
#224 = PRODUCT_DEFINITION_SHAPE ( 'NONE', 'NONE',  #59 ) ;
#225 = SURFACE_STYLE_FILL_AREA ( #49 ) ;
#226 = ORIENTED_EDGE ( 'NONE', *, *, #162, .F. ) ;
#227 = DIRECTION ( 'NONE',  ( 1.000000000000000000, 0.0000000000000000000, 0.0000000000000000000 ) ) ;
#228 = FILL_AREA_STYLE ('',( #50 ) ) ;
#229 = ORIENTED_EDGE ( 'NONE', *, *, #187, .T. ) ;
#230 = DIRECTION ( 'NONE',  ( 0.0000000000000000000, 1.000000000000000000, 0.0000000000000000000 ) ) ;
#231 = UNCERTAINTY_MEASURE_WITH_UNIT (LENGTH_MEASURE( 1.000000000000000100E-005 ), #6, 'distance_accuracy_value', 'NONE');
#232 =( REPRESENTATION_RELATIONSHIP ('NONE','NONE', #29, #85 ) REPRESENTATION_RELATIONSHIP_WITH_TRANSFORMATION ( #89 )SHAPE_REPRESENTATION_RELATIONSHIP( ) );
#233 = CARTESIAN_POINT ( 'NONE',  ( 0.0000000000000000000, 8.000000000000000000, 0.0000000000000000000 ) ) ;
#234 = FILL_AREA_STYLE_COLOUR ( '', #177 ) ;
#235 = ORIENTED_EDGE ( 'NONE', *, *, #150, .F. ) ;
#236 = DIRECTION ( 'NONE',  ( 0.0000000000000000000, 0.0000000000000000000, 1.000000000000000000 ) ) ;
#237 = ADVANCED_FACE ( 'NONE', ( #147 ), #100, .F. ) ;
#238 = CIRCLE ( 'NONE', #48, 175.0000000000000000 ) ;
#239 = CIRCLE ( 'NONE', #3, 175.0000000000000000 ) ;
#240 = DIRECTION ( 'NONE',  ( 0.0000000000000000000, 0.0000000000000000000, -1.000000000000000000 ) ) ;
#241 = DIRECTION ( 'NONE',  ( 0.0000000000000000000, 1.000000000000000000, 0.0000000000000000000 ) ) ;
#242 = MANIFOLD_SOLID_BREP ( 'Linear austragen1', #10 ) ;
#243 = ADVANCED_FACE ( 'NONE', ( #186 ), #105, .T. ) ;
#244 = CARTESIAN_POINT ( 'NONE',  ( 8.572527594031473200E-016, 8.000000000000000000, 7.000000000000000000 ) ) ;
#245 = DIRECTION ( 'NONE',  ( -0.0000000000000000000, -1.000000000000000000, -0.0000000000000000000 ) ) ;
#246 = DIRECTION ( 'NONE',  ( -0.0000000000000000000, -1.000000000000000000, -0.0000000000000000000 ) ) ;
#247 = AXIS2_PLACEMENT_3D ( 'NONE', #172, #35, #190 ) ;
#248 = APPLICATION_PROTOCOL_DEFINITION ( 'draft international standard', 'automotive_design', 1998, #167 ) ;
#249 = EDGE_CURVE ( 'NONE', #111, #134, #238, .T. ) ;
#250 =( LENGTH_UNIT ( ) NAMED_UNIT ( * ) SI_UNIT ( .MILLI., .METRE. ) );
#251 = NEXT_ASSEMBLY_USAGE_OCCURRENCE ( 'NAUO1', ' ', ' ', #59, #64, $ ) ;
ENDSEC;
END-ISO-10303-21;
