ISO-10303-21;
HEADER;
FILE_DESCRIPTION (( 'STEP AP214' ),
    '1' );
FILE_NAME ('6290197.stp',
    '2016-06-29T07:19:01',
    ( '' ),
    ( '' ),
    'SwSTEP 2.0',
    'SolidWorks 2014',
    '' );
FILE_SCHEMA (( 'AUTOMOTIVE_DESIGN' ));
ENDSEC;

DATA;
#1 = APPLICATION_PROTOCOL_DEFINITION ( 'draft international standard', 'automotive_design', 1998, #2 ) ;
#2 = APPLICATION_CONTEXT ( 'automotive_design' ) ;
#3 = PRODUCT_CONTEXT ( 'NONE', #21, 'mechanical' ) ;
#4 = APPLICATION_PROTOCOL_DEFINITION ( 'draft international standard', 'automotive_design', 1998, #21 ) ;
#5 = DIRECTION ( 'NONE',  ( -0.0000000000000000000, -1.000000000000000000, -0.0000000000000000000 ) ) ;
#6 = ADVANCED_FACE ( 'NONE', ( #179 ), #174, .F. ) ;
#7 = APPLICATION_PROTOCOL_DEFINITION ( 'draft international standard', 'automotive_design', 1998, #8 ) ;
#8 = APPLICATION_CONTEXT ( 'automotive_design' ) ;
#9 = VERTEX_POINT ( 'NONE', #163 ) ;
#10 = COLOUR_RGB ( '',0.7529411764705882200, 0.7529411764705882200, 0.7529411764705882200 ) ;
#11 = PRODUCT_CONTEXT ( 'NONE', #18, 'mechanical' ) ;
#12 = CARTESIAN_POINT ( 'NONE',  ( 0.0000000000000000000, 0.0000000000000000000, 0.0000000000000000000 ) ) ;
#13 = EDGE_CURVE ( 'NONE', #130, #223, #177, .T. ) ;
#14 = ORIENTED_EDGE ( 'NONE', *, *, #64, .F. ) ;
#15 = AXIS2_PLACEMENT_3D ( 'NONE', #59, #58, #55 ) ;
#16 = CARTESIAN_POINT ( 'NONE',  ( 0.0000000000000000000, 8.000000000000000000, 0.0000000000000000000 ) ) ;
#17 = APPLICATION_PROTOCOL_DEFINITION ( 'draft international standard', 'automotive_design', 1998, #18 ) ;
#18 = APPLICATION_CONTEXT ( 'automotive_design' ) ;
#19 = EDGE_CURVE ( 'NONE', #114, #67, #176, .T. ) ;
#20 = DIRECTION ( 'NONE',  ( 0.0000000000000000000, 0.0000000000000000000, -1.000000000000000000 ) ) ;
#21 = APPLICATION_CONTEXT ( 'automotive_design' ) ;
#22 = DIRECTION ( 'NONE',  ( 1.000000000000000000, 0.0000000000000000000, 0.0000000000000000000 ) ) ;
#23 = DIRECTION ( 'NONE',  ( 0.0000000000000000000, 0.0000000000000000000, 1.000000000000000000 ) ) ;
#24 = DIRECTION ( 'NONE',  ( 0.0000000000000000000, 0.0000000000000000000, -1.000000000000000000 ) ) ;
#25 = ADVANCED_BREP_SHAPE_REPRESENTATION ( '', ( #45, #15 ), #36 ) ;
#26 = CONTEXT_DEPENDENT_SHAPE_REPRESENTATION ( #100, #54 ) ;
#27 = CARTESIAN_POINT ( 'NONE',  ( -9.254623835349743600, -25.36017243776944600, 9.500000000000003600 ) ) ;
#28 = DIRECTION ( 'NONE',  ( 0.0000000000000000000, 0.0000000000000000000, 1.000000000000000000 ) ) ;
#29 = ADVANCED_FACE ( 'NONE', ( #175 ), #124, .T. ) ;
#30 =( NAMED_UNIT ( * ) SI_UNIT ( $, .STERADIAN. ) SOLID_ANGLE_UNIT ( ) );
#31 = ADVANCED_FACE ( 'NONE', ( #228 ), #165, .F. ) ;
#32 =( NAMED_UNIT ( * ) PLANE_ANGLE_UNIT ( ) SI_UNIT ( $, .RADIAN. ) );
#33 =( LENGTH_UNIT ( ) NAMED_UNIT ( * ) SI_UNIT ( .MILLI., .METRE. ) );
#34 = AXIS2_PLACEMENT_3D ( 'NONE', #104, #86, #28 ) ;
#35 = DIRECTION ( 'NONE',  ( 1.000000000000000000, 0.0000000000000000000, 0.0000000000000000000 ) ) ;
#36 =( GEOMETRIC_REPRESENTATION_CONTEXT ( 3 ) GLOBAL_UNCERTAINTY_ASSIGNED_CONTEXT ( ( #188 ) ) GLOBAL_UNIT_ASSIGNED_CONTEXT ( ( #71, #63, #62 ) ) REPRESENTATION_CONTEXT ( 'NONE', 'WORKASPACE' ) );
#37 = DIRECTION ( 'NONE',  ( 0.0000000000000000000, 1.000000000000000000, 1.224606353822377300E-016 ) ) ;
#38 = CARTESIAN_POINT ( 'NONE',  ( 0.0000000000000000000, 8.000000000000000000, 0.0000000000000000000 ) ) ;
#39 = SHAPE_DEFINITION_REPRESENTATION ( #95, #184 ) ;
#40 = DIRECTION ( 'NONE',  ( 1.000000000000000000, 0.0000000000000000000, 0.0000000000000000000 ) ) ;
#41 = CARTESIAN_POINT ( 'NONE',  ( 2.143131898507867900E-014, 8.000000000000000000, 175.0000000000000000 ) ) ;
#42 = DIRECTION ( 'NONE',  ( 0.0000000000000000000, 0.0000000000000000000, 1.000000000000000000 ) ) ;
#43 = CARTESIAN_POINT ( 'NONE',  ( 0.0000000000000000000, 0.0000000000000000000, 0.0000000000000000000 ) ) ;
#44 = ADVANCED_FACE ( 'NONE', ( #167 ), #156, .T. ) ;
#45 = MANIFOLD_SOLID_BREP ( 'Linear austragen1', #230 ) ;
#46 =( NAMED_UNIT ( * ) PLANE_ANGLE_UNIT ( ) SI_UNIT ( $, .RADIAN. ) );
#47 = EDGE_CURVE ( 'NONE', #223, #185, #171, .T. ) ;
#48 =( LENGTH_UNIT ( ) NAMED_UNIT ( * ) SI_UNIT ( .MILLI., .METRE. ) );
#49 = SURFACE_STYLE_USAGE ( .BOTH. , #50 ) ;
#50 = SURFACE_SIDE_STYLE ('',( #69 ) ) ;
#51 = DIRECTION ( 'NONE',  ( -0.0000000000000000000, -1.000000000000000000, -0.0000000000000000000 ) ) ;
#52 = FILL_AREA_STYLE ('',( #53 ) ) ;
#53 = FILL_AREA_STYLE_COLOUR ( '', #72 ) ;
#54 = PRODUCT_DEFINITION_SHAPE ( 'NONE', 'NONE',  #251 ) ;
#55 = DIRECTION ( 'NONE',  ( 1.000000000000000000, 0.0000000000000000000, 0.0000000000000000000 ) ) ;
#56 = DIRECTION ( 'NONE',  ( 0.0000000000000000000, 1.000000000000000000, 0.0000000000000000000 ) ) ;
#57 = ORIENTED_EDGE ( 'NONE', *, *, #85, .T. ) ;
#58 = DIRECTION ( 'NONE',  ( 0.0000000000000000000, 0.0000000000000000000, 1.000000000000000000 ) ) ;
#59 = CARTESIAN_POINT ( 'NONE',  ( 0.0000000000000000000, 0.0000000000000000000, 0.0000000000000000000 ) ) ;
#60 = UNCERTAINTY_MEASURE_WITH_UNIT (LENGTH_MEASURE( 1.000000000000000100E-005 ), #48, 'distance_accuracy_value', 'NONE');
#61 = CARTESIAN_POINT ( 'NONE',  ( 0.0000000000000000000, 8.000000000000000000, 0.0000000000000000000 ) ) ;
#62 =( NAMED_UNIT ( * ) SI_UNIT ( $, .STERADIAN. ) SOLID_ANGLE_UNIT ( ) );
#63 =( NAMED_UNIT ( * ) PLANE_ANGLE_UNIT ( ) SI_UNIT ( $, .RADIAN. ) );
#64 = EDGE_CURVE ( 'NONE', #9, #157, #162, .T. ) ;
#65 = PRESENTATION_STYLE_ASSIGNMENT (( #49 ) ) ;
#66 = FACE_OUTER_BOUND ( 'NONE', #169, .T. ) ;
#67 = VERTEX_POINT ( 'NONE', #235 ) ;
#68 = CARTESIAN_POINT ( 'NONE',  ( 0.0000000000000000000, 8.000000000000000000, 0.0000000000000000000 ) ) ;
#69 = SURFACE_STYLE_FILL_AREA ( #52 ) ;
#70 = SHAPE_REPRESENTATION ( '002414T1_Standard', ( #15 ), #36 ) ;
#71 =( LENGTH_UNIT ( ) NAMED_UNIT ( * ) SI_UNIT ( .MILLI., .METRE. ) );
#72 = COLOUR_RGB ( '',0.7529411764705882200, 0.7529411764705882200, 0.7529411764705882200 ) ;
#73 =( GEOMETRIC_REPRESENTATION_CONTEXT ( 3 ) GLOBAL_UNCERTAINTY_ASSIGNED_CONTEXT ( ( #91 ) ) GLOBAL_UNIT_ASSIGNED_CONTEXT ( ( #239, #238, #236 ) ) REPRESENTATION_CONTEXT ( 'NONE', 'WORKASPACE' ) );
#74 = CARTESIAN_POINT ( 'NONE',  ( 0.0000000000000000000, 0.0000000000000000000, 0.0000000000000000000 ) ) ;
#75 = DIRECTION ( 'NONE',  ( -0.0000000000000000000, -1.000000000000000000, -0.0000000000000000000 ) ) ;
#76 = ORIENTED_EDGE ( 'NONE', *, *, #19, .F. ) ;
#77 = LINE ( 'NONE', #148, #227 ) ;
#78 = AXIS2_PLACEMENT_3D ( 'NONE', #97, #88, #87 ) ;
#79 = DIRECTION ( 'NONE',  ( 0.0000000000000000000, -0.0000000000000000000, 1.000000000000000000 ) ) ;
#80 = AXIS2_PLACEMENT_3D ( 'NONE', #61, #75, #131 ) ;
#81 = PLANE ( 'NONE',  #160 ) ;
#82 = CARTESIAN_POINT ( 'NONE',  ( 0.0000000000000000000, 0.0000000000000000000, -175.0000000000000000 ) ) ;
#83 = FACE_BOUND ( 'NONE', #242, .T. ) ;
#84 = CARTESIAN_POINT ( 'NONE',  ( 0.0000000000000000000, 8.000000000000000000, 0.0000000000000000000 ) ) ;
#85 = EDGE_CURVE ( 'NONE', #223, #130, #172, .T. ) ;
#86 = DIRECTION ( 'NONE',  ( 0.0000000000000000000, 1.000000000000000000, 0.0000000000000000000 ) ) ;
#87 = DIRECTION ( 'NONE',  ( 0.0000000000000000000, -0.0000000000000000000, 1.000000000000000000 ) ) ;
#88 = DIRECTION ( 'NONE',  ( 0.0000000000000000000, 1.000000000000000000, 0.0000000000000000000 ) ) ;
#89 = PRODUCT ( '6290197', '6290197', '', ( #11 ) ) ;
#90 = DIRECTION ( 'NONE',  ( 0.0000000000000000000, 0.0000000000000000000, 1.000000000000000000 ) ) ;
#91 = UNCERTAINTY_MEASURE_WITH_UNIT (LENGTH_MEASURE( 1.000000000000000100E-005 ), #239, 'distance_accuracy_value', 'NONE');
#92 = FACE_BOUND ( 'NONE', #212, .T. ) ;
#93 = DIRECTION ( 'NONE',  ( 0.0000000000000000000, 1.000000000000000000, 0.0000000000000000000 ) ) ;
#94 = CARTESIAN_POINT ( 'NONE',  ( 0.0000000000000000000, 0.0000000000000000000, 0.0000000000000000000 ) ) ;
#95 = PRODUCT_DEFINITION_SHAPE ( 'NONE', 'NONE',  #155 ) ;
#96 = SHAPE_REPRESENTATION_RELATIONSHIP ( 'NONE' , 'NONE' ,  #70, #25 ) ;
#97 = CARTESIAN_POINT ( 'NONE',  ( 0.0000000000000000000, 0.0000000000000000000, 0.0000000000000000000 ) ) ;
#98 = EDGE_CURVE ( 'NONE', #157, #67, #122, .T. ) ;
#99 = CIRCLE ( 'NONE', #123, 175.0000000000000000 ) ;
#100 =( REPRESENTATION_RELATIONSHIP ('NONE','NONE', #184, #70 ) REPRESENTATION_RELATIONSHIP_WITH_TRANSFORMATION ( #102 )SHAPE_REPRESENTATION_RELATIONSHIP( ) );
#101 = ORIENTED_EDGE ( 'NONE', *, *, #98, .T. ) ;
#102 = ITEM_DEFINED_TRANSFORMATION ( 'NONE', 'NONE', #178,  #15 ) ;
#103 = DIRECTION ( 'NONE',  ( 0.0000000000000000000, 0.0000000000000000000, 1.000000000000000000 ) ) ;
#104 = CARTESIAN_POINT ( 'NONE',  ( 0.0000000000000000000, 8.000000000000000000, 0.0000000000000000000 ) ) ;
#105 = DIRECTION ( 'NONE',  ( 0.0000000000000000000, 1.000000000000000000, 0.0000000000000000000 ) ) ;
#106 = EDGE_CURVE ( 'NONE', #9, #114, #121, .T. ) ;
#107 = CARTESIAN_POINT ( 'NONE',  ( 0.0000000000000000000, 0.0000000000000000000, 0.0000000000000000000 ) ) ;
#108 = CIRCLE ( 'NONE', #134, 175.0000000000000000 ) ;
#109 = SHAPE_DEFINITION_REPRESENTATION ( #139, #70 ) ;
#110 = PLANE ( 'NONE',  #78 ) ;
#111 = AXIS2_PLACEMENT_3D ( 'NONE', #203, #200, #199 ) ;
#112 = VECTOR ( 'NONE', #192, 1000.000000000000000 ) ;
#113 = DIRECTION ( 'NONE',  ( 0.0000000000000000000, 1.000000000000000000, 0.0000000000000000000 ) ) ;
#114 = VERTEX_POINT ( 'NONE', #190 ) ;
#115 = CIRCLE ( 'NONE', #132, 7.000000000000000000 ) ;
#116 = EDGE_CURVE ( 'NONE', #157, #9, #120, .T. ) ;
#117 = VECTOR ( 'NONE', #209, 1000.000000000000000 ) ;
#118 = DIRECTION ( 'NONE',  ( -0.0000000000000000000, -1.000000000000000000, -0.0000000000000000000 ) ) ;
#119 = AXIS2_PLACEMENT_3D ( 'NONE', #12, #56, #23 ) ;
#120 = CIRCLE ( 'NONE', #135, 7.000000000000000000 ) ;
#121 = LINE ( 'NONE', #204, #112 ) ;
#122 = LINE ( 'NONE', #232, #117 ) ;
#123 = AXIS2_PLACEMENT_3D ( 'NONE', #94, #93, #90 ) ;
#124 = CYLINDRICAL_SURFACE ( 'NONE', #195, 175.0000000000000000 ) ;
#125 = VECTOR ( 'NONE', #5, 1000.000000000000000 ) ;
#126 = DIRECTION ( 'NONE',  ( 0.0000000000000000000, 0.0000000000000000000, 1.000000000000000000 ) ) ;
#127 =( NAMED_UNIT ( * ) SI_UNIT ( $, .STERADIAN. ) SOLID_ANGLE_UNIT ( ) );
#128 = DIRECTION ( 'NONE',  ( 0.0000000000000000000, 1.000000000000000000, 0.0000000000000000000 ) ) ;
#129 = CARTESIAN_POINT ( 'NONE',  ( 0.0000000000000000000, 0.0000000000000000000, 0.0000000000000000000 ) ) ;
#130 = VERTEX_POINT ( 'NONE', #226 ) ;
#131 = DIRECTION ( 'NONE',  ( 0.0000000000000000000, 0.0000000000000000000, -1.000000000000000000 ) ) ;
#132 = AXIS2_PLACEMENT_3D ( 'NONE', #107, #105, #103 ) ;
#133 = CARTESIAN_POINT ( 'NONE',  ( 2.143131898507867900E-014, 8.000000000000000000, 175.0000000000000000 ) ) ;
#134 = AXIS2_PLACEMENT_3D ( 'NONE', #129, #128, #126 ) ;
#135 = AXIS2_PLACEMENT_3D ( 'NONE', #161, #159, #158 ) ;
#136 = AXIS2_PLACEMENT_3D ( 'NONE', #215, #213, #211 ) ;
#137 = DIRECTION ( 'NONE',  ( 0.0000000000000000000, 0.0000000000000000000, -1.000000000000000000 ) ) ;
#138 = MECHANICAL_DESIGN_GEOMETRIC_PRESENTATION_REPRESENTATION (  '', ( #145 ), #73 ) ;
#139 = PRODUCT_DEFINITION_SHAPE ( 'NONE', 'NONE',  #164 ) ;
#140 = PRODUCT_RELATED_PRODUCT_CATEGORY ( 'part', '', ( #198 ) ) ;
#141 = ORIENTED_EDGE ( 'NONE', *, *, #64, .T. ) ;
#142 = PRODUCT_DEFINITION_CONTEXT ( 'detailed design', #2, 'design' ) ;
#143 = PRESENTATION_LAYER_ASSIGNMENT (  '', '', ( #145 ) ) ;
#144 = PRODUCT_DEFINITION_FORMATION_WITH_SPECIFIED_SOURCE ( 'ANY', '', #198, .NOT_KNOWN. ) ;
#145 = STYLED_ITEM ( 'NONE', ( #147 ), #45 ) ;
#146 = AXIS2_PLACEMENT_3D ( 'NONE', #16, #197, #24 ) ;
#147 = PRESENTATION_STYLE_ASSIGNMENT (( #240 ) ) ;
#148 = CARTESIAN_POINT ( 'NONE',  ( 0.0000000000000000000, 8.000000000000000000, -175.0000000000000000 ) ) ;
#149 = AXIS2_PLACEMENT_3D ( 'NONE', #38, #118, #137 ) ;
#150 = PRODUCT_RELATED_PRODUCT_CATEGORY ( 'part', '', ( #89 ) ) ;
#151 = UNCERTAINTY_MEASURE_WITH_UNIT (LENGTH_MEASURE( 1.000000000000000100E-005 ), #33, 'distance_accuracy_value', 'NONE');
#152 = PRODUCT_DEFINITION_FORMATION_WITH_SPECIFIED_SOURCE ( 'ANY', '', #89, .NOT_KNOWN. ) ;
#153 = SURFACE_STYLE_FILL_AREA ( #243 ) ;
#154 = DIRECTION ( 'NONE',  ( -0.0000000000000000000, -1.000000000000000000, -0.0000000000000000000 ) ) ;
#155 = PRODUCT_DEFINITION ( 'UNKNOWN', '', #152, #237 ) ;
#156 = CYLINDRICAL_SURFACE ( 'NONE', #146, 175.0000000000000000 ) ;
#157 = VERTEX_POINT ( 'NONE', #193 ) ;
#158 = DIRECTION ( 'NONE',  ( 0.0000000000000000000, 0.0000000000000000000, 1.000000000000000000 ) ) ;
#159 = DIRECTION ( 'NONE',  ( 0.0000000000000000000, 1.000000000000000000, 0.0000000000000000000 ) ) ;
#160 = AXIS2_PLACEMENT_3D ( 'NONE', #84, #113, #79 ) ;
#161 = CARTESIAN_POINT ( 'NONE',  ( 0.0000000000000000000, 8.000000000000000000, 0.0000000000000000000 ) ) ;
#162 = CIRCLE ( 'NONE', #136, 7.000000000000000000 ) ;
#163 = CARTESIAN_POINT ( 'NONE',  ( 8.572527594031473200E-016, 8.000000000000000000, 7.000000000000000000 ) ) ;
#164 = PRODUCT_DEFINITION ( 'UNKNOWN', '', #144, #142 ) ;
#165 = CYLINDRICAL_SURFACE ( 'NONE', #149, 7.000000000000000000 ) ;
#166 = AXIS2_PLACEMENT_3D ( 'NONE', #74, #196, #22 ) ;
#167 = FACE_OUTER_BOUND ( 'NONE', #222, .T. ) ;
#168 = EDGE_LOOP ( 'NONE', ( #210, #57 ) ) ;
#169 = EDGE_LOOP ( 'NONE', ( #214, #216 ) ) ;
#170 = ORIENTED_EDGE ( 'NONE', *, *, #234, .T. ) ;
#171 = LINE ( 'NONE', #41, #125 ) ;
#172 = CIRCLE ( 'NONE', #111, 175.0000000000000000 ) ;
#173 =( GEOMETRIC_REPRESENTATION_CONTEXT ( 3 ) GLOBAL_UNCERTAINTY_ASSIGNED_CONTEXT ( ( #151 ) ) GLOBAL_UNIT_ASSIGNED_CONTEXT ( ( #33, #32, #30 ) ) REPRESENTATION_CONTEXT ( 'NONE', 'WORKASPACE' ) );
#174 = CYLINDRICAL_SURFACE ( 'NONE', #80, 7.000000000000000000 ) ;
#175 = FACE_OUTER_BOUND ( 'NONE', #217, .T. ) ;
#176 = CIRCLE ( 'NONE', #119, 7.000000000000000000 ) ;
#177 = CIRCLE ( 'NONE', #34, 175.0000000000000000 ) ;
#178 = AXIS2_PLACEMENT_3D ( 'NONE', #27, #37, #35 ) ;
#179 = FACE_OUTER_BOUND ( 'NONE', #250, .T. ) ;
#180 = ORIENTED_EDGE ( 'NONE', *, *, #106, .T. ) ;
#181 = ORIENTED_EDGE ( 'NONE', *, *, #116, .F. ) ;
#182 = AXIS2_PLACEMENT_3D ( 'NONE', #43, #42, #40 ) ;
#183 = ORIENTED_EDGE ( 'NONE', *, *, #116, .T. ) ;
#184 = SHAPE_REPRESENTATION ( '6290197', ( #166, #178 ), #173 ) ;
#185 = VERTEX_POINT ( 'NONE', #207 ) ;
#186 = ORIENTED_EDGE ( 'NONE', *, *, #233, .F. ) ;
#187 = ORIENTED_EDGE ( 'NONE', *, *, #98, .F. ) ;
#188 = UNCERTAINTY_MEASURE_WITH_UNIT (LENGTH_MEASURE( 1.000000000000000100E-005 ), #71, 'distance_accuracy_value', 'NONE');
#189 = ORIENTED_EDGE ( 'NONE', *, *, #85, .F. ) ;
#190 = CARTESIAN_POINT ( 'NONE',  ( 8.572527594031473200E-016, 0.0000000000000000000, 7.000000000000000000 ) ) ;
#191 = ORIENTED_EDGE ( 'NONE', *, *, #47, .T. ) ;
#192 = DIRECTION ( 'NONE',  ( -0.0000000000000000000, -1.000000000000000000, -0.0000000000000000000 ) ) ;
#193 = CARTESIAN_POINT ( 'NONE',  ( 0.0000000000000000000, 8.000000000000000000, -7.000000000000000000 ) ) ;
#194 = ORIENTED_EDGE ( 'NONE', *, *, #229, .T. ) ;
#195 = AXIS2_PLACEMENT_3D ( 'NONE', #68, #51, #20 ) ;
#196 = DIRECTION ( 'NONE',  ( 0.0000000000000000000, 0.0000000000000000000, 1.000000000000000000 ) ) ;
#197 = DIRECTION ( 'NONE',  ( -0.0000000000000000000, -1.000000000000000000, -0.0000000000000000000 ) ) ;
#198 = PRODUCT ( '002414T1_Standard', '002414T1_Standard', '', ( #3 ) ) ;
#199 = DIRECTION ( 'NONE',  ( 0.0000000000000000000, 0.0000000000000000000, 1.000000000000000000 ) ) ;
#200 = DIRECTION ( 'NONE',  ( 0.0000000000000000000, 1.000000000000000000, 0.0000000000000000000 ) ) ;
#201 = ORIENTED_EDGE ( 'NONE', *, *, #220, .F. ) ;
#202 =( GEOMETRIC_REPRESENTATION_CONTEXT ( 3 ) GLOBAL_UNCERTAINTY_ASSIGNED_CONTEXT ( ( #60 ) ) GLOBAL_UNIT_ASSIGNED_CONTEXT ( ( #48, #46, #127 ) ) REPRESENTATION_CONTEXT ( 'NONE', 'WORKASPACE' ) );
#203 = CARTESIAN_POINT ( 'NONE',  ( 0.0000000000000000000, 8.000000000000000000, 0.0000000000000000000 ) ) ;
#204 = CARTESIAN_POINT ( 'NONE',  ( 8.572527594031473200E-016, 8.000000000000000000, 7.000000000000000000 ) ) ;
#205 = MECHANICAL_DESIGN_GEOMETRIC_PRESENTATION_REPRESENTATION (  '', ( #247 ), #202 ) ;
#206 = ORIENTED_EDGE ( 'NONE', *, *, #106, .F. ) ;
#207 = CARTESIAN_POINT ( 'NONE',  ( 2.143131898507867900E-014, 0.0000000000000000000, 175.0000000000000000 ) ) ;
#208 = FACE_OUTER_BOUND ( 'NONE', #168, .T. ) ;
#209 = DIRECTION ( 'NONE',  ( -0.0000000000000000000, -1.000000000000000000, -0.0000000000000000000 ) ) ;
#210 = ORIENTED_EDGE ( 'NONE', *, *, #13, .T. ) ;
#211 = DIRECTION ( 'NONE',  ( 0.0000000000000000000, 0.0000000000000000000, 1.000000000000000000 ) ) ;
#212 = EDGE_LOOP ( 'NONE', ( #181, #14 ) ) ;
#213 = DIRECTION ( 'NONE',  ( 0.0000000000000000000, 1.000000000000000000, 0.0000000000000000000 ) ) ;
#214 = ORIENTED_EDGE ( 'NONE', *, *, #234, .F. ) ;
#215 = CARTESIAN_POINT ( 'NONE',  ( 0.0000000000000000000, 8.000000000000000000, 0.0000000000000000000 ) ) ;
#216 = ORIENTED_EDGE ( 'NONE', *, *, #229, .F. ) ;
#217 = EDGE_LOOP ( 'NONE', ( #189, #191, #194, #201 ) ) ;
#218 = ORIENTED_EDGE ( 'NONE', *, *, #233, .T. ) ;
#219 = ORIENTED_EDGE ( 'NONE', *, *, #220, .T. ) ;
#220 = EDGE_CURVE ( 'NONE', #130, #249, #77, .T. ) ;
#221 = ORIENTED_EDGE ( 'NONE', *, *, #19, .T. ) ;
#222 = EDGE_LOOP ( 'NONE', ( #224, #225, #219, #170 ) ) ;
#223 = VERTEX_POINT ( 'NONE', #133 ) ;
#224 = ORIENTED_EDGE ( 'NONE', *, *, #47, .F. ) ;
#225 = ORIENTED_EDGE ( 'NONE', *, *, #13, .F. ) ;
#226 = CARTESIAN_POINT ( 'NONE',  ( 0.0000000000000000000, 8.000000000000000000, -175.0000000000000000 ) ) ;
#227 = VECTOR ( 'NONE', #154, 1000.000000000000000 ) ;
#228 = FACE_OUTER_BOUND ( 'NONE', #231, .T. ) ;
#229 = EDGE_CURVE ( 'NONE', #185, #249, #108, .T. ) ;
#230 = CLOSED_SHELL ( 'NONE', ( #31, #29, #248, #246, #44, #6 ) ) ;
#231 = EDGE_LOOP ( 'NONE', ( #183, #180, #186, #187 ) ) ;
#232 = CARTESIAN_POINT ( 'NONE',  ( 0.0000000000000000000, 8.000000000000000000, -7.000000000000000000 ) ) ;
#233 = EDGE_CURVE ( 'NONE', #67, #114, #115, .T. ) ;
#234 = EDGE_CURVE ( 'NONE', #249, #185, #99, .T. ) ;
#235 = CARTESIAN_POINT ( 'NONE',  ( 0.0000000000000000000, 0.0000000000000000000, -7.000000000000000000 ) ) ;
#236 =( NAMED_UNIT ( * ) SI_UNIT ( $, .STERADIAN. ) SOLID_ANGLE_UNIT ( ) );
#237 = PRODUCT_DEFINITION_CONTEXT ( 'detailed design', #8, 'design' ) ;
#238 =( NAMED_UNIT ( * ) PLANE_ANGLE_UNIT ( ) SI_UNIT ( $, .RADIAN. ) );
#239 =( LENGTH_UNIT ( ) NAMED_UNIT ( * ) SI_UNIT ( .MILLI., .METRE. ) );
#240 = SURFACE_STYLE_USAGE ( .BOTH. , #241 ) ;
#241 = SURFACE_SIDE_STYLE ('',( #153 ) ) ;
#242 = EDGE_LOOP ( 'NONE', ( #218, #221 ) ) ;
#243 = FILL_AREA_STYLE ('',( #245 ) ) ;
#244 = PRESENTATION_LAYER_ASSIGNMENT (  '', '', ( #247 ) ) ;
#245 = FILL_AREA_STYLE_COLOUR ( '', #10 ) ;
#246 = ADVANCED_FACE ( 'NONE', ( #66, #83 ), #110, .F. ) ;
#247 = STYLED_ITEM ( 'NONE', ( #65 ), #25 ) ;
#248 = ADVANCED_FACE ( 'NONE', ( #208, #92 ), #81, .T. ) ;
#249 = VERTEX_POINT ( 'NONE', #82 ) ;
#250 = EDGE_LOOP ( 'NONE', ( #206, #141, #101, #76 ) ) ;
#251 = NEXT_ASSEMBLY_USAGE_OCCURRENCE ( 'NAUO1', ' ', ' ', #155, #164, $ ) ;
ENDSEC;
END-ISO-10303-21;
