ISO-10303-21;
HEADER;
FILE_DESCRIPTION((''),'2;1');
FILE_NAME('6416500','2012-07-20T',('AndreasKeweloh'),(''),
'PRO/ENGINEER BY PARAMETRIC TECHNOLOGY CORPORATION, 2012130',
'PRO/ENGINEER BY PARAMETRIC TECHNOLOGY CORPORATION, 2012130','');
FILE_SCHEMA(('CONFIG_CONTROL_DESIGN'));
ENDSEC;
DATA;
#2=DIRECTION('',(-1.E0,0.E0,0.E0));
#3=VECTOR('',#2,9.E0);
#4=CARTESIAN_POINT('',(-2.5E1,4.E1,-2.2E1));
#5=LINE('',#4,#3);
#6=CARTESIAN_POINT('',(-3.4E1,3.4E1,-2.2E1));
#7=DIRECTION('',(0.E0,0.E0,1.E0));
#8=DIRECTION('',(0.E0,1.E0,0.E0));
#9=AXIS2_PLACEMENT_3D('',#6,#7,#8);
#11=DIRECTION('',(0.E0,-1.E0,0.E0));
#12=VECTOR('',#11,2.8E1);
#13=CARTESIAN_POINT('',(-4.E1,3.4E1,-2.2E1));
#14=LINE('',#13,#12);
#15=CARTESIAN_POINT('',(-3.4E1,6.E0,-2.2E1));
#16=DIRECTION('',(0.E0,0.E0,1.E0));
#17=DIRECTION('',(-1.E0,0.E0,0.E0));
#18=AXIS2_PLACEMENT_3D('',#15,#16,#17);
#20=DIRECTION('',(1.E0,0.E0,0.E0));
#21=VECTOR('',#20,6.8E1);
#22=CARTESIAN_POINT('',(-3.4E1,0.E0,-2.2E1));
#23=LINE('',#22,#21);
#24=CARTESIAN_POINT('',(3.4E1,6.E0,-2.2E1));
#25=DIRECTION('',(0.E0,0.E0,1.E0));
#26=DIRECTION('',(0.E0,-1.E0,0.E0));
#27=AXIS2_PLACEMENT_3D('',#24,#25,#26);
#29=DIRECTION('',(0.E0,1.E0,0.E0));
#30=VECTOR('',#29,2.8E1);
#31=CARTESIAN_POINT('',(4.E1,6.E0,-2.2E1));
#32=LINE('',#31,#30);
#33=CARTESIAN_POINT('',(3.4E1,3.4E1,-2.2E1));
#34=DIRECTION('',(0.E0,0.E0,1.E0));
#35=DIRECTION('',(1.E0,0.E0,0.E0));
#36=AXIS2_PLACEMENT_3D('',#33,#34,#35);
#38=DIRECTION('',(-1.E0,0.E0,0.E0));
#39=VECTOR('',#38,9.E0);
#40=CARTESIAN_POINT('',(3.4E1,4.E1,-2.2E1));
#41=LINE('',#40,#39);
#42=DIRECTION('',(0.E0,-1.E0,0.E0));
#43=VECTOR('',#42,3.E0);
#44=CARTESIAN_POINT('',(2.5E1,4.E1,-2.2E1));
#45=LINE('',#44,#43);
#46=DIRECTION('',(1.E0,0.E0,0.E0));
#47=VECTOR('',#46,9.E0);
#48=CARTESIAN_POINT('',(2.5E1,3.7E1,-2.2E1));
#49=LINE('',#48,#47);
#50=CARTESIAN_POINT('',(3.4E1,3.4E1,-2.2E1));
#51=DIRECTION('',(0.E0,0.E0,-1.E0));
#52=DIRECTION('',(0.E0,1.E0,0.E0));
#53=AXIS2_PLACEMENT_3D('',#50,#51,#52);
#55=DIRECTION('',(0.E0,-1.E0,0.E0));
#56=VECTOR('',#55,2.8E1);
#57=CARTESIAN_POINT('',(3.7E1,3.4E1,-2.2E1));
#58=LINE('',#57,#56);
#59=CARTESIAN_POINT('',(3.4E1,6.E0,-2.2E1));
#60=DIRECTION('',(0.E0,0.E0,-1.E0));
#61=DIRECTION('',(1.E0,1.776356839400E-14,0.E0));
#62=AXIS2_PLACEMENT_3D('',#59,#60,#61);
#64=DIRECTION('',(-1.E0,0.E0,0.E0));
#65=VECTOR('',#64,6.8E1);
#66=CARTESIAN_POINT('',(3.4E1,3.E0,-2.2E1));
#67=LINE('',#66,#65);
#68=CARTESIAN_POINT('',(-3.4E1,6.E0,-2.2E1));
#69=DIRECTION('',(0.E0,0.E0,-1.E0));
#70=DIRECTION('',(0.E0,-1.E0,0.E0));
#71=AXIS2_PLACEMENT_3D('',#68,#69,#70);
#73=DIRECTION('',(0.E0,1.E0,0.E0));
#74=VECTOR('',#73,2.8E1);
#75=CARTESIAN_POINT('',(-3.7E1,6.E0,-2.2E1));
#76=LINE('',#75,#74);
#77=CARTESIAN_POINT('',(-3.4E1,3.4E1,-2.2E1));
#78=DIRECTION('',(0.E0,0.E0,-1.E0));
#79=DIRECTION('',(-1.E0,0.E0,0.E0));
#80=AXIS2_PLACEMENT_3D('',#77,#78,#79);
#82=DIRECTION('',(1.E0,0.E0,0.E0));
#83=VECTOR('',#82,9.E0);
#84=CARTESIAN_POINT('',(-3.4E1,3.7E1,-2.2E1));
#85=LINE('',#84,#83);
#86=DIRECTION('',(0.E0,1.E0,0.E0));
#87=VECTOR('',#86,3.E0);
#88=CARTESIAN_POINT('',(-2.5E1,3.7E1,-2.2E1));
#89=LINE('',#88,#87);
#90=DIRECTION('',(0.E0,0.E0,1.E0));
#91=VECTOR('',#90,4.4E1);
#92=CARTESIAN_POINT('',(-2.5E1,4.E1,-2.2E1));
#93=LINE('',#92,#91);
#94=DIRECTION('',(0.E0,0.E0,1.E0));
#95=VECTOR('',#94,4.4E1);
#96=CARTESIAN_POINT('',(-2.5E1,3.7E1,-2.2E1));
#97=LINE('',#96,#95);
#98=DIRECTION('',(0.E0,0.E0,1.E0));
#99=VECTOR('',#98,4.4E1);
#100=CARTESIAN_POINT('',(-3.4E1,3.7E1,-2.2E1));
#101=LINE('',#100,#99);
#102=DIRECTION('',(0.E0,0.E0,1.E0));
#103=VECTOR('',#102,4.4E1);
#104=CARTESIAN_POINT('',(-3.7E1,3.4E1,-2.2E1));
#105=LINE('',#104,#103);
#106=DIRECTION('',(0.E0,0.E0,1.E0));
#107=VECTOR('',#106,4.4E1);
#108=CARTESIAN_POINT('',(-3.7E1,6.E0,-2.2E1));
#109=LINE('',#108,#107);
#110=DIRECTION('',(0.E0,0.E0,1.E0));
#111=VECTOR('',#110,4.4E1);
#112=CARTESIAN_POINT('',(-3.4E1,3.E0,-2.2E1));
#113=LINE('',#112,#111);
#114=DIRECTION('',(0.E0,0.E0,1.E0));
#115=VECTOR('',#114,4.4E1);
#116=CARTESIAN_POINT('',(3.4E1,3.E0,-2.2E1));
#117=LINE('',#116,#115);
#118=DIRECTION('',(0.E0,0.E0,1.E0));
#119=VECTOR('',#118,4.4E1);
#120=CARTESIAN_POINT('',(3.7E1,6.E0,-2.2E1));
#121=LINE('',#120,#119);
#122=DIRECTION('',(0.E0,0.E0,1.E0));
#123=VECTOR('',#122,4.4E1);
#124=CARTESIAN_POINT('',(3.7E1,3.4E1,-2.2E1));
#125=LINE('',#124,#123);
#126=DIRECTION('',(0.E0,0.E0,1.E0));
#127=VECTOR('',#126,4.4E1);
#128=CARTESIAN_POINT('',(3.4E1,3.7E1,-2.2E1));
#129=LINE('',#128,#127);
#130=DIRECTION('',(0.E0,0.E0,1.E0));
#131=VECTOR('',#130,4.4E1);
#132=CARTESIAN_POINT('',(2.5E1,3.7E1,-2.2E1));
#133=LINE('',#132,#131);
#134=DIRECTION('',(0.E0,0.E0,1.E0));
#135=VECTOR('',#134,4.4E1);
#136=CARTESIAN_POINT('',(2.5E1,4.E1,-2.2E1));
#137=LINE('',#136,#135);
#138=DIRECTION('',(0.E0,0.E0,1.E0));
#139=VECTOR('',#138,4.4E1);
#140=CARTESIAN_POINT('',(3.4E1,4.E1,-2.2E1));
#141=LINE('',#140,#139);
#142=DIRECTION('',(0.E0,0.E0,1.E0));
#143=VECTOR('',#142,4.4E1);
#144=CARTESIAN_POINT('',(4.E1,3.4E1,-2.2E1));
#145=LINE('',#144,#143);
#146=DIRECTION('',(0.E0,0.E0,1.E0));
#147=VECTOR('',#146,4.4E1);
#148=CARTESIAN_POINT('',(4.E1,6.E0,-2.2E1));
#149=LINE('',#148,#147);
#150=DIRECTION('',(0.E0,0.E0,1.E0));
#151=VECTOR('',#150,4.4E1);
#152=CARTESIAN_POINT('',(3.4E1,0.E0,-2.2E1));
#153=LINE('',#152,#151);
#154=DIRECTION('',(0.E0,0.E0,1.E0));
#155=VECTOR('',#154,4.4E1);
#156=CARTESIAN_POINT('',(-3.4E1,0.E0,-2.2E1));
#157=LINE('',#156,#155);
#158=DIRECTION('',(0.E0,0.E0,1.E0));
#159=VECTOR('',#158,4.4E1);
#160=CARTESIAN_POINT('',(-4.E1,6.E0,-2.2E1));
#161=LINE('',#160,#159);
#162=DIRECTION('',(0.E0,0.E0,1.E0));
#163=VECTOR('',#162,4.4E1);
#164=CARTESIAN_POINT('',(-4.E1,3.4E1,-2.2E1));
#165=LINE('',#164,#163);
#166=DIRECTION('',(0.E0,0.E0,1.E0));
#167=VECTOR('',#166,4.4E1);
#168=CARTESIAN_POINT('',(-3.4E1,4.E1,-2.2E1));
#169=LINE('',#168,#167);
#170=DIRECTION('',(-1.E0,0.E0,0.E0));
#171=VECTOR('',#170,9.E0);
#172=CARTESIAN_POINT('',(-2.5E1,4.E1,2.2E1));
#173=LINE('',#172,#171);
#174=DIRECTION('',(0.E0,1.E0,0.E0));
#175=VECTOR('',#174,3.E0);
#176=CARTESIAN_POINT('',(-2.5E1,3.7E1,2.2E1));
#177=LINE('',#176,#175);
#178=DIRECTION('',(1.E0,0.E0,0.E0));
#179=VECTOR('',#178,9.E0);
#180=CARTESIAN_POINT('',(-3.4E1,3.7E1,2.2E1));
#181=LINE('',#180,#179);
#182=CARTESIAN_POINT('',(-3.4E1,3.4E1,2.2E1));
#183=DIRECTION('',(0.E0,0.E0,-1.E0));
#184=DIRECTION('',(-1.E0,0.E0,0.E0));
#185=AXIS2_PLACEMENT_3D('',#182,#183,#184);
#187=DIRECTION('',(0.E0,1.E0,0.E0));
#188=VECTOR('',#187,2.8E1);
#189=CARTESIAN_POINT('',(-3.7E1,6.E0,2.2E1));
#190=LINE('',#189,#188);
#191=CARTESIAN_POINT('',(-3.4E1,6.E0,2.2E1));
#192=DIRECTION('',(0.E0,0.E0,-1.E0));
#193=DIRECTION('',(0.E0,-1.E0,0.E0));
#194=AXIS2_PLACEMENT_3D('',#191,#192,#193);
#196=DIRECTION('',(-1.E0,0.E0,0.E0));
#197=VECTOR('',#196,6.8E1);
#198=CARTESIAN_POINT('',(3.4E1,3.E0,2.2E1));
#199=LINE('',#198,#197);
#200=CARTESIAN_POINT('',(3.4E1,6.E0,2.2E1));
#201=DIRECTION('',(0.E0,0.E0,-1.E0));
#202=DIRECTION('',(1.E0,1.776356839400E-14,0.E0));
#203=AXIS2_PLACEMENT_3D('',#200,#201,#202);
#205=DIRECTION('',(0.E0,-1.E0,0.E0));
#206=VECTOR('',#205,2.8E1);
#207=CARTESIAN_POINT('',(3.7E1,3.4E1,2.2E1));
#208=LINE('',#207,#206);
#209=CARTESIAN_POINT('',(3.4E1,3.4E1,2.2E1));
#210=DIRECTION('',(0.E0,0.E0,-1.E0));
#211=DIRECTION('',(0.E0,1.E0,0.E0));
#212=AXIS2_PLACEMENT_3D('',#209,#210,#211);
#214=DIRECTION('',(1.E0,0.E0,0.E0));
#215=VECTOR('',#214,9.E0);
#216=CARTESIAN_POINT('',(2.5E1,3.7E1,2.2E1));
#217=LINE('',#216,#215);
#218=DIRECTION('',(0.E0,-1.E0,0.E0));
#219=VECTOR('',#218,3.E0);
#220=CARTESIAN_POINT('',(2.5E1,4.E1,2.2E1));
#221=LINE('',#220,#219);
#222=DIRECTION('',(-1.E0,0.E0,0.E0));
#223=VECTOR('',#222,9.E0);
#224=CARTESIAN_POINT('',(3.4E1,4.E1,2.2E1));
#225=LINE('',#224,#223);
#226=CARTESIAN_POINT('',(3.4E1,3.4E1,2.2E1));
#227=DIRECTION('',(0.E0,0.E0,1.E0));
#228=DIRECTION('',(1.E0,0.E0,0.E0));
#229=AXIS2_PLACEMENT_3D('',#226,#227,#228);
#231=DIRECTION('',(0.E0,1.E0,0.E0));
#232=VECTOR('',#231,2.8E1);
#233=CARTESIAN_POINT('',(4.E1,6.E0,2.2E1));
#234=LINE('',#233,#232);
#235=CARTESIAN_POINT('',(3.4E1,6.E0,2.2E1));
#236=DIRECTION('',(0.E0,0.E0,1.E0));
#237=DIRECTION('',(0.E0,-1.E0,0.E0));
#238=AXIS2_PLACEMENT_3D('',#235,#236,#237);
#240=DIRECTION('',(1.E0,0.E0,0.E0));
#241=VECTOR('',#240,6.8E1);
#242=CARTESIAN_POINT('',(-3.4E1,0.E0,2.2E1));
#243=LINE('',#242,#241);
#244=CARTESIAN_POINT('',(-3.4E1,6.E0,2.2E1));
#245=DIRECTION('',(0.E0,0.E0,1.E0));
#246=DIRECTION('',(-1.E0,0.E0,0.E0));
#247=AXIS2_PLACEMENT_3D('',#244,#245,#246);
#249=DIRECTION('',(0.E0,-1.E0,0.E0));
#250=VECTOR('',#249,2.8E1);
#251=CARTESIAN_POINT('',(-4.E1,3.4E1,2.2E1));
#252=LINE('',#251,#250);
#253=CARTESIAN_POINT('',(-3.4E1,3.4E1,2.2E1));
#254=DIRECTION('',(0.E0,0.E0,1.E0));
#255=DIRECTION('',(0.E0,1.E0,0.E0));
#256=AXIS2_PLACEMENT_3D('',#253,#254,#255);
#258=CARTESIAN_POINT('',(-2.5E1,4.E1,-2.2E1));
#259=CARTESIAN_POINT('',(-3.4E1,4.E1,-2.2E1));
#260=VERTEX_POINT('',#258);
#261=VERTEX_POINT('',#259);
#262=CARTESIAN_POINT('',(-4.E1,3.4E1,-2.2E1));
#263=VERTEX_POINT('',#262);
#264=CARTESIAN_POINT('',(-4.E1,6.E0,-2.2E1));
#265=VERTEX_POINT('',#264);
#266=CARTESIAN_POINT('',(-3.4E1,0.E0,-2.2E1));
#267=VERTEX_POINT('',#266);
#268=CARTESIAN_POINT('',(3.4E1,0.E0,-2.2E1));
#269=VERTEX_POINT('',#268);
#270=CARTESIAN_POINT('',(4.E1,6.E0,-2.2E1));
#271=VERTEX_POINT('',#270);
#272=CARTESIAN_POINT('',(4.E1,3.4E1,-2.2E1));
#273=VERTEX_POINT('',#272);
#274=CARTESIAN_POINT('',(3.4E1,4.E1,-2.2E1));
#275=VERTEX_POINT('',#274);
#276=CARTESIAN_POINT('',(2.5E1,4.E1,-2.2E1));
#277=VERTEX_POINT('',#276);
#278=CARTESIAN_POINT('',(2.5E1,3.7E1,-2.2E1));
#279=VERTEX_POINT('',#278);
#280=CARTESIAN_POINT('',(3.4E1,3.7E1,-2.2E1));
#281=VERTEX_POINT('',#280);
#282=CARTESIAN_POINT('',(3.7E1,3.4E1,-2.2E1));
#283=VERTEX_POINT('',#282);
#284=CARTESIAN_POINT('',(3.7E1,6.E0,-2.2E1));
#285=VERTEX_POINT('',#284);
#286=CARTESIAN_POINT('',(3.4E1,3.E0,-2.2E1));
#287=VERTEX_POINT('',#286);
#288=CARTESIAN_POINT('',(-3.4E1,3.E0,-2.2E1));
#289=VERTEX_POINT('',#288);
#290=CARTESIAN_POINT('',(-3.7E1,6.E0,-2.2E1));
#291=VERTEX_POINT('',#290);
#292=CARTESIAN_POINT('',(-3.7E1,3.4E1,-2.2E1));
#293=VERTEX_POINT('',#292);
#294=CARTESIAN_POINT('',(-3.4E1,3.7E1,-2.2E1));
#295=VERTEX_POINT('',#294);
#296=CARTESIAN_POINT('',(-2.5E1,3.7E1,-2.2E1));
#297=VERTEX_POINT('',#296);
#298=CARTESIAN_POINT('',(-2.5E1,4.E1,2.2E1));
#299=CARTESIAN_POINT('',(-3.4E1,4.E1,2.2E1));
#300=VERTEX_POINT('',#298);
#301=VERTEX_POINT('',#299);
#302=CARTESIAN_POINT('',(-4.E1,3.4E1,2.2E1));
#303=VERTEX_POINT('',#302);
#304=CARTESIAN_POINT('',(-4.E1,6.E0,2.2E1));
#305=VERTEX_POINT('',#304);
#306=CARTESIAN_POINT('',(-3.4E1,0.E0,2.2E1));
#307=VERTEX_POINT('',#306);
#308=CARTESIAN_POINT('',(3.4E1,0.E0,2.2E1));
#309=VERTEX_POINT('',#308);
#310=CARTESIAN_POINT('',(4.E1,6.E0,2.2E1));
#311=VERTEX_POINT('',#310);
#312=CARTESIAN_POINT('',(4.E1,3.4E1,2.2E1));
#313=VERTEX_POINT('',#312);
#314=CARTESIAN_POINT('',(3.4E1,4.E1,2.2E1));
#315=VERTEX_POINT('',#314);
#316=CARTESIAN_POINT('',(2.5E1,4.E1,2.2E1));
#317=VERTEX_POINT('',#316);
#318=CARTESIAN_POINT('',(2.5E1,3.7E1,2.2E1));
#319=VERTEX_POINT('',#318);
#320=CARTESIAN_POINT('',(3.4E1,3.7E1,2.2E1));
#321=VERTEX_POINT('',#320);
#322=CARTESIAN_POINT('',(3.7E1,3.4E1,2.2E1));
#323=VERTEX_POINT('',#322);
#324=CARTESIAN_POINT('',(3.7E1,6.E0,2.2E1));
#325=VERTEX_POINT('',#324);
#326=CARTESIAN_POINT('',(3.4E1,3.E0,2.2E1));
#327=VERTEX_POINT('',#326);
#328=CARTESIAN_POINT('',(-3.4E1,3.E0,2.2E1));
#329=VERTEX_POINT('',#328);
#330=CARTESIAN_POINT('',(-3.7E1,6.E0,2.2E1));
#331=VERTEX_POINT('',#330);
#332=CARTESIAN_POINT('',(-3.7E1,3.4E1,2.2E1));
#333=VERTEX_POINT('',#332);
#334=CARTESIAN_POINT('',(-3.4E1,3.7E1,2.2E1));
#335=VERTEX_POINT('',#334);
#336=CARTESIAN_POINT('',(-2.5E1,3.7E1,2.2E1));
#337=VERTEX_POINT('',#336);
#338=CARTESIAN_POINT('',(0.E0,0.E0,-2.2E1));
#339=DIRECTION('',(0.E0,0.E0,1.E0));
#340=DIRECTION('',(1.E0,0.E0,0.E0));
#341=AXIS2_PLACEMENT_3D('',#338,#339,#340);
#342=PLANE('',#341);
#344=ORIENTED_EDGE('',*,*,#343,.T.);
#346=ORIENTED_EDGE('',*,*,#345,.T.);
#348=ORIENTED_EDGE('',*,*,#347,.T.);
#350=ORIENTED_EDGE('',*,*,#349,.T.);
#352=ORIENTED_EDGE('',*,*,#351,.T.);
#354=ORIENTED_EDGE('',*,*,#353,.T.);
#356=ORIENTED_EDGE('',*,*,#355,.T.);
#358=ORIENTED_EDGE('',*,*,#357,.T.);
#360=ORIENTED_EDGE('',*,*,#359,.T.);
#362=ORIENTED_EDGE('',*,*,#361,.T.);
#364=ORIENTED_EDGE('',*,*,#363,.T.);
#366=ORIENTED_EDGE('',*,*,#365,.T.);
#368=ORIENTED_EDGE('',*,*,#367,.T.);
#370=ORIENTED_EDGE('',*,*,#369,.T.);
#372=ORIENTED_EDGE('',*,*,#371,.T.);
#374=ORIENTED_EDGE('',*,*,#373,.T.);
#376=ORIENTED_EDGE('',*,*,#375,.T.);
#378=ORIENTED_EDGE('',*,*,#377,.T.);
#380=ORIENTED_EDGE('',*,*,#379,.T.);
#382=ORIENTED_EDGE('',*,*,#381,.T.);
#383=EDGE_LOOP('',(#344,#346,#348,#350,#352,#354,#356,#358,#360,#362,#364,#366,
#368,#370,#372,#374,#376,#378,#380,#382));
#384=FACE_OUTER_BOUND('',#383,.F.);
#385=ADVANCED_FACE('',(#384),#342,.F.);
#386=CARTESIAN_POINT('',(-2.5E1,4.E1,-2.2E1));
#387=DIRECTION('',(0.E0,1.E0,0.E0));
#388=DIRECTION('',(-1.E0,0.E0,0.E0));
#389=AXIS2_PLACEMENT_3D('',#386,#387,#388);
#390=PLANE('',#389);
#391=ORIENTED_EDGE('',*,*,#343,.F.);
#393=ORIENTED_EDGE('',*,*,#392,.T.);
#395=ORIENTED_EDGE('',*,*,#394,.T.);
#397=ORIENTED_EDGE('',*,*,#396,.F.);
#398=EDGE_LOOP('',(#391,#393,#395,#397));
#399=FACE_OUTER_BOUND('',#398,.F.);
#400=ADVANCED_FACE('',(#399),#390,.T.);
#401=CARTESIAN_POINT('',(-2.5E1,3.7E1,-2.2E1));
#402=DIRECTION('',(1.E0,0.E0,0.E0));
#403=DIRECTION('',(0.E0,1.E0,0.E0));
#404=AXIS2_PLACEMENT_3D('',#401,#402,#403);
#405=PLANE('',#404);
#406=ORIENTED_EDGE('',*,*,#381,.F.);
#408=ORIENTED_EDGE('',*,*,#407,.T.);
#410=ORIENTED_EDGE('',*,*,#409,.T.);
#411=ORIENTED_EDGE('',*,*,#392,.F.);
#412=EDGE_LOOP('',(#406,#408,#410,#411));
#413=FACE_OUTER_BOUND('',#412,.F.);
#414=ADVANCED_FACE('',(#413),#405,.T.);
#415=CARTESIAN_POINT('',(-3.4E1,3.7E1,-2.2E1));
#416=DIRECTION('',(0.E0,-1.E0,0.E0));
#417=DIRECTION('',(1.E0,0.E0,0.E0));
#418=AXIS2_PLACEMENT_3D('',#415,#416,#417);
#419=PLANE('',#418);
#420=ORIENTED_EDGE('',*,*,#379,.F.);
#422=ORIENTED_EDGE('',*,*,#421,.T.);
#424=ORIENTED_EDGE('',*,*,#423,.T.);
#425=ORIENTED_EDGE('',*,*,#407,.F.);
#426=EDGE_LOOP('',(#420,#422,#424,#425));
#427=FACE_OUTER_BOUND('',#426,.F.);
#428=ADVANCED_FACE('',(#427),#419,.T.);
#429=CARTESIAN_POINT('',(-3.4E1,3.4E1,-2.2E1));
#430=DIRECTION('',(0.E0,0.E0,1.E0));
#431=DIRECTION('',(1.E0,0.E0,0.E0));
#432=AXIS2_PLACEMENT_3D('',#429,#430,#431);
#433=CYLINDRICAL_SURFACE('',#432,3.E0);
#434=ORIENTED_EDGE('',*,*,#377,.F.);
#436=ORIENTED_EDGE('',*,*,#435,.T.);
#438=ORIENTED_EDGE('',*,*,#437,.T.);
#439=ORIENTED_EDGE('',*,*,#421,.F.);
#440=EDGE_LOOP('',(#434,#436,#438,#439));
#441=FACE_OUTER_BOUND('',#440,.F.);
#442=ADVANCED_FACE('',(#441),#433,.F.);
#443=CARTESIAN_POINT('',(-3.7E1,6.E0,-2.2E1));
#444=DIRECTION('',(1.E0,0.E0,0.E0));
#445=DIRECTION('',(0.E0,1.E0,0.E0));
#446=AXIS2_PLACEMENT_3D('',#443,#444,#445);
#447=PLANE('',#446);
#448=ORIENTED_EDGE('',*,*,#375,.F.);
#450=ORIENTED_EDGE('',*,*,#449,.T.);
#452=ORIENTED_EDGE('',*,*,#451,.T.);
#453=ORIENTED_EDGE('',*,*,#435,.F.);
#454=EDGE_LOOP('',(#448,#450,#452,#453));
#455=FACE_OUTER_BOUND('',#454,.F.);
#456=ADVANCED_FACE('',(#455),#447,.T.);
#457=CARTESIAN_POINT('',(-3.4E1,6.E0,-2.2E1));
#458=DIRECTION('',(0.E0,0.E0,1.E0));
#459=DIRECTION('',(1.E0,0.E0,0.E0));
#460=AXIS2_PLACEMENT_3D('',#457,#458,#459);
#461=CYLINDRICAL_SURFACE('',#460,3.E0);
#462=ORIENTED_EDGE('',*,*,#373,.F.);
#464=ORIENTED_EDGE('',*,*,#463,.T.);
#466=ORIENTED_EDGE('',*,*,#465,.T.);
#467=ORIENTED_EDGE('',*,*,#449,.F.);
#468=EDGE_LOOP('',(#462,#464,#466,#467));
#469=FACE_OUTER_BOUND('',#468,.F.);
#470=ADVANCED_FACE('',(#469),#461,.F.);
#471=CARTESIAN_POINT('',(3.4E1,3.E0,-2.2E1));
#472=DIRECTION('',(0.E0,1.E0,0.E0));
#473=DIRECTION('',(-1.E0,0.E0,0.E0));
#474=AXIS2_PLACEMENT_3D('',#471,#472,#473);
#475=PLANE('',#474);
#476=ORIENTED_EDGE('',*,*,#371,.F.);
#478=ORIENTED_EDGE('',*,*,#477,.T.);
#480=ORIENTED_EDGE('',*,*,#479,.T.);
#481=ORIENTED_EDGE('',*,*,#463,.F.);
#482=EDGE_LOOP('',(#476,#478,#480,#481));
#483=FACE_OUTER_BOUND('',#482,.F.);
#484=ADVANCED_FACE('',(#483),#475,.T.);
#485=CARTESIAN_POINT('',(3.4E1,6.E0,-2.2E1));
#486=DIRECTION('',(0.E0,0.E0,1.E0));
#487=DIRECTION('',(1.E0,0.E0,0.E0));
#488=AXIS2_PLACEMENT_3D('',#485,#486,#487);
#489=CYLINDRICAL_SURFACE('',#488,3.E0);
#490=ORIENTED_EDGE('',*,*,#369,.F.);
#492=ORIENTED_EDGE('',*,*,#491,.T.);
#494=ORIENTED_EDGE('',*,*,#493,.T.);
#495=ORIENTED_EDGE('',*,*,#477,.F.);
#496=EDGE_LOOP('',(#490,#492,#494,#495));
#497=FACE_OUTER_BOUND('',#496,.F.);
#498=ADVANCED_FACE('',(#497),#489,.F.);
#499=CARTESIAN_POINT('',(3.7E1,3.4E1,-2.2E1));
#500=DIRECTION('',(-1.E0,0.E0,0.E0));
#501=DIRECTION('',(0.E0,-1.E0,0.E0));
#502=AXIS2_PLACEMENT_3D('',#499,#500,#501);
#503=PLANE('',#502);
#504=ORIENTED_EDGE('',*,*,#367,.F.);
#506=ORIENTED_EDGE('',*,*,#505,.T.);
#508=ORIENTED_EDGE('',*,*,#507,.T.);
#509=ORIENTED_EDGE('',*,*,#491,.F.);
#510=EDGE_LOOP('',(#504,#506,#508,#509));
#511=FACE_OUTER_BOUND('',#510,.F.);
#512=ADVANCED_FACE('',(#511),#503,.T.);
#513=CARTESIAN_POINT('',(3.4E1,3.4E1,-2.2E1));
#514=DIRECTION('',(0.E0,0.E0,1.E0));
#515=DIRECTION('',(1.E0,0.E0,0.E0));
#516=AXIS2_PLACEMENT_3D('',#513,#514,#515);
#517=CYLINDRICAL_SURFACE('',#516,3.E0);
#518=ORIENTED_EDGE('',*,*,#365,.F.);
#520=ORIENTED_EDGE('',*,*,#519,.T.);
#522=ORIENTED_EDGE('',*,*,#521,.T.);
#523=ORIENTED_EDGE('',*,*,#505,.F.);
#524=EDGE_LOOP('',(#518,#520,#522,#523));
#525=FACE_OUTER_BOUND('',#524,.F.);
#526=ADVANCED_FACE('',(#525),#517,.F.);
#527=CARTESIAN_POINT('',(2.5E1,3.7E1,-2.2E1));
#528=DIRECTION('',(0.E0,-1.E0,0.E0));
#529=DIRECTION('',(1.E0,0.E0,0.E0));
#530=AXIS2_PLACEMENT_3D('',#527,#528,#529);
#531=PLANE('',#530);
#532=ORIENTED_EDGE('',*,*,#363,.F.);
#534=ORIENTED_EDGE('',*,*,#533,.T.);
#536=ORIENTED_EDGE('',*,*,#535,.T.);
#537=ORIENTED_EDGE('',*,*,#519,.F.);
#538=EDGE_LOOP('',(#532,#534,#536,#537));
#539=FACE_OUTER_BOUND('',#538,.F.);
#540=ADVANCED_FACE('',(#539),#531,.T.);
#541=CARTESIAN_POINT('',(2.5E1,4.E1,-2.2E1));
#542=DIRECTION('',(-1.E0,0.E0,0.E0));
#543=DIRECTION('',(0.E0,-1.E0,0.E0));
#544=AXIS2_PLACEMENT_3D('',#541,#542,#543);
#545=PLANE('',#544);
#546=ORIENTED_EDGE('',*,*,#361,.F.);
#548=ORIENTED_EDGE('',*,*,#547,.T.);
#550=ORIENTED_EDGE('',*,*,#549,.T.);
#551=ORIENTED_EDGE('',*,*,#533,.F.);
#552=EDGE_LOOP('',(#546,#548,#550,#551));
#553=FACE_OUTER_BOUND('',#552,.F.);
#554=ADVANCED_FACE('',(#553),#545,.T.);
#555=CARTESIAN_POINT('',(3.4E1,4.E1,-2.2E1));
#556=DIRECTION('',(0.E0,1.E0,0.E0));
#557=DIRECTION('',(-1.E0,0.E0,0.E0));
#558=AXIS2_PLACEMENT_3D('',#555,#556,#557);
#559=PLANE('',#558);
#560=ORIENTED_EDGE('',*,*,#359,.F.);
#562=ORIENTED_EDGE('',*,*,#561,.T.);
#564=ORIENTED_EDGE('',*,*,#563,.T.);
#565=ORIENTED_EDGE('',*,*,#547,.F.);
#566=EDGE_LOOP('',(#560,#562,#564,#565));
#567=FACE_OUTER_BOUND('',#566,.F.);
#568=ADVANCED_FACE('',(#567),#559,.T.);
#569=CARTESIAN_POINT('',(3.4E1,3.4E1,-2.2E1));
#570=DIRECTION('',(0.E0,0.E0,1.E0));
#571=DIRECTION('',(1.E0,0.E0,0.E0));
#572=AXIS2_PLACEMENT_3D('',#569,#570,#571);
#573=CYLINDRICAL_SURFACE('',#572,6.E0);
#574=ORIENTED_EDGE('',*,*,#357,.F.);
#576=ORIENTED_EDGE('',*,*,#575,.T.);
#578=ORIENTED_EDGE('',*,*,#577,.T.);
#579=ORIENTED_EDGE('',*,*,#561,.F.);
#580=EDGE_LOOP('',(#574,#576,#578,#579));
#581=FACE_OUTER_BOUND('',#580,.F.);
#582=ADVANCED_FACE('',(#581),#573,.T.);
#583=CARTESIAN_POINT('',(4.E1,6.E0,-2.2E1));
#584=DIRECTION('',(1.E0,0.E0,0.E0));
#585=DIRECTION('',(0.E0,1.E0,0.E0));
#586=AXIS2_PLACEMENT_3D('',#583,#584,#585);
#587=PLANE('',#586);
#588=ORIENTED_EDGE('',*,*,#355,.F.);
#590=ORIENTED_EDGE('',*,*,#589,.T.);
#592=ORIENTED_EDGE('',*,*,#591,.T.);
#593=ORIENTED_EDGE('',*,*,#575,.F.);
#594=EDGE_LOOP('',(#588,#590,#592,#593));
#595=FACE_OUTER_BOUND('',#594,.F.);
#596=ADVANCED_FACE('',(#595),#587,.T.);
#597=CARTESIAN_POINT('',(3.4E1,6.E0,-2.2E1));
#598=DIRECTION('',(0.E0,0.E0,1.E0));
#599=DIRECTION('',(1.E0,0.E0,0.E0));
#600=AXIS2_PLACEMENT_3D('',#597,#598,#599);
#601=CYLINDRICAL_SURFACE('',#600,6.E0);
#602=ORIENTED_EDGE('',*,*,#353,.F.);
#604=ORIENTED_EDGE('',*,*,#603,.T.);
#606=ORIENTED_EDGE('',*,*,#605,.T.);
#607=ORIENTED_EDGE('',*,*,#589,.F.);
#608=EDGE_LOOP('',(#602,#604,#606,#607));
#609=FACE_OUTER_BOUND('',#608,.F.);
#610=ADVANCED_FACE('',(#609),#601,.T.);
#611=CARTESIAN_POINT('',(-3.4E1,0.E0,-2.2E1));
#612=DIRECTION('',(0.E0,-1.E0,0.E0));
#613=DIRECTION('',(1.E0,0.E0,0.E0));
#614=AXIS2_PLACEMENT_3D('',#611,#612,#613);
#615=PLANE('',#614);
#616=ORIENTED_EDGE('',*,*,#351,.F.);
#618=ORIENTED_EDGE('',*,*,#617,.T.);
#620=ORIENTED_EDGE('',*,*,#619,.T.);
#621=ORIENTED_EDGE('',*,*,#603,.F.);
#622=EDGE_LOOP('',(#616,#618,#620,#621));
#623=FACE_OUTER_BOUND('',#622,.F.);
#624=ADVANCED_FACE('',(#623),#615,.T.);
#625=CARTESIAN_POINT('',(-3.4E1,6.E0,-2.2E1));
#626=DIRECTION('',(0.E0,0.E0,1.E0));
#627=DIRECTION('',(1.E0,0.E0,0.E0));
#628=AXIS2_PLACEMENT_3D('',#625,#626,#627);
#629=CYLINDRICAL_SURFACE('',#628,6.E0);
#630=ORIENTED_EDGE('',*,*,#349,.F.);
#632=ORIENTED_EDGE('',*,*,#631,.T.);
#634=ORIENTED_EDGE('',*,*,#633,.T.);
#635=ORIENTED_EDGE('',*,*,#617,.F.);
#636=EDGE_LOOP('',(#630,#632,#634,#635));
#637=FACE_OUTER_BOUND('',#636,.F.);
#638=ADVANCED_FACE('',(#637),#629,.T.);
#639=CARTESIAN_POINT('',(-4.E1,3.4E1,-2.2E1));
#640=DIRECTION('',(-1.E0,0.E0,0.E0));
#641=DIRECTION('',(0.E0,-1.E0,0.E0));
#642=AXIS2_PLACEMENT_3D('',#639,#640,#641);
#643=PLANE('',#642);
#644=ORIENTED_EDGE('',*,*,#347,.F.);
#646=ORIENTED_EDGE('',*,*,#645,.T.);
#648=ORIENTED_EDGE('',*,*,#647,.T.);
#649=ORIENTED_EDGE('',*,*,#631,.F.);
#650=EDGE_LOOP('',(#644,#646,#648,#649));
#651=FACE_OUTER_BOUND('',#650,.F.);
#652=ADVANCED_FACE('',(#651),#643,.T.);
#653=CARTESIAN_POINT('',(-3.4E1,3.4E1,-2.2E1));
#654=DIRECTION('',(0.E0,0.E0,1.E0));
#655=DIRECTION('',(1.E0,0.E0,0.E0));
#656=AXIS2_PLACEMENT_3D('',#653,#654,#655);
#657=CYLINDRICAL_SURFACE('',#656,6.E0);
#658=ORIENTED_EDGE('',*,*,#345,.F.);
#659=ORIENTED_EDGE('',*,*,#396,.T.);
#661=ORIENTED_EDGE('',*,*,#660,.T.);
#662=ORIENTED_EDGE('',*,*,#645,.F.);
#663=EDGE_LOOP('',(#658,#659,#661,#662));
#664=FACE_OUTER_BOUND('',#663,.F.);
#665=ADVANCED_FACE('',(#664),#657,.T.);
#666=CARTESIAN_POINT('',(0.E0,0.E0,2.2E1));
#667=DIRECTION('',(0.E0,0.E0,1.E0));
#668=DIRECTION('',(1.E0,0.E0,0.E0));
#669=AXIS2_PLACEMENT_3D('',#666,#667,#668);
#670=PLANE('',#669);
#671=ORIENTED_EDGE('',*,*,#394,.F.);
#672=ORIENTED_EDGE('',*,*,#409,.F.);
#673=ORIENTED_EDGE('',*,*,#423,.F.);
#674=ORIENTED_EDGE('',*,*,#437,.F.);
#675=ORIENTED_EDGE('',*,*,#451,.F.);
#676=ORIENTED_EDGE('',*,*,#465,.F.);
#677=ORIENTED_EDGE('',*,*,#479,.F.);
#678=ORIENTED_EDGE('',*,*,#493,.F.);
#679=ORIENTED_EDGE('',*,*,#507,.F.);
#680=ORIENTED_EDGE('',*,*,#521,.F.);
#681=ORIENTED_EDGE('',*,*,#535,.F.);
#682=ORIENTED_EDGE('',*,*,#549,.F.);
#683=ORIENTED_EDGE('',*,*,#563,.F.);
#684=ORIENTED_EDGE('',*,*,#577,.F.);
#685=ORIENTED_EDGE('',*,*,#591,.F.);
#686=ORIENTED_EDGE('',*,*,#605,.F.);
#687=ORIENTED_EDGE('',*,*,#619,.F.);
#688=ORIENTED_EDGE('',*,*,#633,.F.);
#689=ORIENTED_EDGE('',*,*,#647,.F.);
#690=ORIENTED_EDGE('',*,*,#660,.F.);
#691=EDGE_LOOP('',(#671,#672,#673,#674,#675,#676,#677,#678,#679,#680,#681,#682,
#683,#684,#685,#686,#687,#688,#689,#690));
#692=FACE_OUTER_BOUND('',#691,.F.);
#693=ADVANCED_FACE('',(#692),#670,.T.);
#694=CLOSED_SHELL('',(#385,#400,#414,#428,#442,#456,#470,#484,#498,#512,#526,
#540,#554,#568,#582,#596,#610,#624,#638,#652,#665,#693));
#695=MANIFOLD_SOLID_BREP('',#694);
#697=DIMENSIONAL_EXPONENTS(0.E0,0.E0,0.E0,0.E0,0.E0,0.E0,0.E0);
#699=PLANE_ANGLE_MEASURE_WITH_UNIT(PLANE_ANGLE_MEASURE(1.745329251994E-2),#698);
#700=(CONVERSION_BASED_UNIT('DEGREE',#699)NAMED_UNIT(*)PLANE_ANGLE_UNIT());
#702=UNCERTAINTY_MEASURE_WITH_UNIT(LENGTH_MEASURE(9.967549917556E-3),#696,
'closure',
'Maximum model space distance between geometric entities at asserted connectivities');
#703=(GEOMETRIC_REPRESENTATION_CONTEXT(3)GLOBAL_UNCERTAINTY_ASSIGNED_CONTEXT((
#702))GLOBAL_UNIT_ASSIGNED_CONTEXT((#696,#700,#701))REPRESENTATION_CONTEXT
('ID1','3'));
#705=APPLICATION_CONTEXT(
'CONFIGURATION CONTROLLED 3D DESIGNS OF MECHANICAL PARTS AND ASSEMBLIES');
#706=APPLICATION_PROTOCOL_DEFINITION('international standard',
'config_control_design',1994,#705);
#707=DESIGN_CONTEXT('',#705,'design');
#708=MECHANICAL_CONTEXT('',#705,'mechanical');
#709=PRODUCT('6416500','6416500','NOT SPECIFIED',(#708));
#710=PRODUCT_DEFINITION_FORMATION_WITH_SPECIFIED_SOURCE('2','LAST_VERSION',#709,
.MADE.);
#714=PRODUCT_CATEGORY('part','');
#715=PRODUCT_RELATED_PRODUCT_CATEGORY('detail','',(#709));
#716=PRODUCT_CATEGORY_RELATIONSHIP('','',#714,#715);
#717=SECURITY_CLASSIFICATION_LEVEL('unclassified');
#718=SECURITY_CLASSIFICATION('','',#717);
#719=CC_DESIGN_SECURITY_CLASSIFICATION(#718,(#710));
#720=APPROVAL_STATUS('approved');
#721=APPROVAL(#720,'');
#722=CC_DESIGN_APPROVAL(#721,(#718,#710,#711));
#723=CALENDAR_DATE(112,20,7);
#724=COORDINATED_UNIVERSAL_TIME_OFFSET(2,0,.AHEAD.);
#725=LOCAL_TIME(15,31,5.5E1,#724);
#726=DATE_AND_TIME(#723,#725);
#727=APPROVAL_DATE_TIME(#726,#721);
#728=DATE_TIME_ROLE('creation_date');
#729=CC_DESIGN_DATE_AND_TIME_ASSIGNMENT(#726,#728,(#711));
#730=DATE_TIME_ROLE('classification_date');
#731=CC_DESIGN_DATE_AND_TIME_ASSIGNMENT(#726,#730,(#718));
#732=PERSON('UNSPECIFIED','UNSPECIFIED',$,$,$,$);
#733=ORGANIZATION('UNSPECIFIED','UNSPECIFIED','UNSPECIFIED');
#734=PERSON_AND_ORGANIZATION(#732,#733);
#735=APPROVAL_ROLE('approver');
#736=APPROVAL_PERSON_ORGANIZATION(#734,#721,#735);
#737=PERSON_AND_ORGANIZATION_ROLE('creator');
#738=CC_DESIGN_PERSON_AND_ORGANIZATION_ASSIGNMENT(#734,#737,(#710,#711));
#739=PERSON_AND_ORGANIZATION_ROLE('design_supplier');
#740=CC_DESIGN_PERSON_AND_ORGANIZATION_ASSIGNMENT(#734,#739,(#710));
#741=PERSON_AND_ORGANIZATION_ROLE('classification_officer');
#742=CC_DESIGN_PERSON_AND_ORGANIZATION_ASSIGNMENT(#734,#741,(#718));
#743=PERSON_AND_ORGANIZATION_ROLE('design_owner');
#744=CC_DESIGN_PERSON_AND_ORGANIZATION_ASSIGNMENT(#734,#743,(#709));
#10=CIRCLE('',#9,6.E0);
#19=CIRCLE('',#18,6.E0);
#28=CIRCLE('',#27,6.E0);
#37=CIRCLE('',#36,6.E0);
#54=CIRCLE('',#53,3.E0);
#63=CIRCLE('',#62,3.E0);
#72=CIRCLE('',#71,3.E0);
#81=CIRCLE('',#80,3.E0);
#186=CIRCLE('',#185,3.E0);
#195=CIRCLE('',#194,3.E0);
#204=CIRCLE('',#203,3.E0);
#213=CIRCLE('',#212,3.E0);
#230=CIRCLE('',#229,6.E0);
#239=CIRCLE('',#238,6.E0);
#248=CIRCLE('',#247,6.E0);
#257=CIRCLE('',#256,6.E0);
#343=EDGE_CURVE('',#260,#261,#5,.T.);
#345=EDGE_CURVE('',#261,#263,#10,.T.);
#347=EDGE_CURVE('',#263,#265,#14,.T.);
#349=EDGE_CURVE('',#265,#267,#19,.T.);
#351=EDGE_CURVE('',#267,#269,#23,.T.);
#353=EDGE_CURVE('',#269,#271,#28,.T.);
#355=EDGE_CURVE('',#271,#273,#32,.T.);
#357=EDGE_CURVE('',#273,#275,#37,.T.);
#359=EDGE_CURVE('',#275,#277,#41,.T.);
#361=EDGE_CURVE('',#277,#279,#45,.T.);
#363=EDGE_CURVE('',#279,#281,#49,.T.);
#365=EDGE_CURVE('',#281,#283,#54,.T.);
#367=EDGE_CURVE('',#283,#285,#58,.T.);
#369=EDGE_CURVE('',#285,#287,#63,.T.);
#371=EDGE_CURVE('',#287,#289,#67,.T.);
#373=EDGE_CURVE('',#289,#291,#72,.T.);
#375=EDGE_CURVE('',#291,#293,#76,.T.);
#377=EDGE_CURVE('',#293,#295,#81,.T.);
#379=EDGE_CURVE('',#295,#297,#85,.T.);
#381=EDGE_CURVE('',#297,#260,#89,.T.);
#392=EDGE_CURVE('',#260,#300,#93,.T.);
#394=EDGE_CURVE('',#300,#301,#173,.T.);
#396=EDGE_CURVE('',#261,#301,#169,.T.);
#407=EDGE_CURVE('',#297,#337,#97,.T.);
#409=EDGE_CURVE('',#337,#300,#177,.T.);
#421=EDGE_CURVE('',#295,#335,#101,.T.);
#423=EDGE_CURVE('',#335,#337,#181,.T.);
#435=EDGE_CURVE('',#293,#333,#105,.T.);
#437=EDGE_CURVE('',#333,#335,#186,.T.);
#449=EDGE_CURVE('',#291,#331,#109,.T.);
#451=EDGE_CURVE('',#331,#333,#190,.T.);
#463=EDGE_CURVE('',#289,#329,#113,.T.);
#465=EDGE_CURVE('',#329,#331,#195,.T.);
#477=EDGE_CURVE('',#287,#327,#117,.T.);
#479=EDGE_CURVE('',#327,#329,#199,.T.);
#491=EDGE_CURVE('',#285,#325,#121,.T.);
#493=EDGE_CURVE('',#325,#327,#204,.T.);
#505=EDGE_CURVE('',#283,#323,#125,.T.);
#507=EDGE_CURVE('',#323,#325,#208,.T.);
#519=EDGE_CURVE('',#281,#321,#129,.T.);
#521=EDGE_CURVE('',#321,#323,#213,.T.);
#533=EDGE_CURVE('',#279,#319,#133,.T.);
#535=EDGE_CURVE('',#319,#321,#217,.T.);
#547=EDGE_CURVE('',#277,#317,#137,.T.);
#549=EDGE_CURVE('',#317,#319,#221,.T.);
#561=EDGE_CURVE('',#275,#315,#141,.T.);
#563=EDGE_CURVE('',#315,#317,#225,.T.);
#575=EDGE_CURVE('',#273,#313,#145,.T.);
#577=EDGE_CURVE('',#313,#315,#230,.T.);
#589=EDGE_CURVE('',#271,#311,#149,.T.);
#591=EDGE_CURVE('',#311,#313,#234,.T.);
#603=EDGE_CURVE('',#269,#309,#153,.T.);
#605=EDGE_CURVE('',#309,#311,#239,.T.);
#617=EDGE_CURVE('',#267,#307,#157,.T.);
#619=EDGE_CURVE('',#307,#309,#243,.T.);
#631=EDGE_CURVE('',#265,#305,#161,.T.);
#633=EDGE_CURVE('',#305,#307,#248,.T.);
#645=EDGE_CURVE('',#263,#303,#165,.T.);
#647=EDGE_CURVE('',#303,#305,#252,.T.);
#660=EDGE_CURVE('',#301,#303,#257,.T.);
#696=(LENGTH_UNIT()NAMED_UNIT(*)SI_UNIT(.MILLI.,.METRE.));
#698=(NAMED_UNIT(*)PLANE_ANGLE_UNIT()SI_UNIT($,.RADIAN.));
#701=(NAMED_UNIT(*)SI_UNIT($,.STERADIAN.)SOLID_ANGLE_UNIT());
#704=ADVANCED_BREP_SHAPE_REPRESENTATION('',(#695),#703);
#711=PRODUCT_DEFINITION('design','',#710,#707);
#712=PRODUCT_DEFINITION_SHAPE('','SHAPE FOR 6416500.',#711);
#713=SHAPE_DEFINITION_REPRESENTATION(#712,#704);
ENDSEC;
END-ISO-10303-21;
