ISO-10303-21;
HEADER;
FILE_DESCRIPTION (( 'STEP AP214' ),
    '1' );
FILE_NAME ('7400533_KSTP1.stp',
    '2016-10-12T08:01:37',
    ( '' ),
    ( '' ),
    'SwSTEP 2.0',
    'SolidWorks 2016',
    '' );
FILE_SCHEMA (( 'AUTOMOTIVE_DESIGN' ));
ENDSEC;

DATA;
#1 = DIRECTION ( 'NONE',  ( 0.0000000000000000000, 0.0000000000000000000, 1.000000000000000000 ) ) ;
#2 = ADVANCED_FACE ( 'NONE', ( #229 ), #195, .T. ) ;
#3 = ORIENTED_EDGE ( 'NONE', *, *, #123, .F. ) ;
#4 = DIRECTION ( 'NONE',  ( -0.0000000000000000000, 1.000000000000000000, -0.0000000000000000000 ) ) ;
#5 = AXIS2_PLACEMENT_3D ( 'NONE', #217, #37, #110 ) ;
#6 = VECTOR ( 'NONE', #223, 1000.000000000000000 ) ;
#7 = CARTESIAN_POINT ( 'NONE',  ( -191.2500000000000300, -6.000000000000000000, -191.2499999999999700 ) ) ;
#8 = CARTESIAN_POINT ( 'NONE',  ( 191.2500000000000300, -6.000000000000000000, 191.2500000000000300 ) ) ;
#9 = APPLICATION_CONTEXT ( 'automotive_design' ) ;
#10 = ORIENTED_EDGE ( 'NONE', *, *, #35, .T. ) ;
#11 = CARTESIAN_POINT ( 'NONE',  ( -191.2500000000000300, -6.000000000000000000, -191.2499999999999700 ) ) ;
#12 = CARTESIAN_POINT ( 'NONE',  ( 1.708382284810557800E-014, -6.000000000000000000, -139.5000000000000000 ) ) ;
#13 = VECTOR ( 'NONE', #201, 1000.000000000000000 ) ;
#14 = VECTOR ( 'NONE', #48, 1000.000000000000000 ) ;
#15 = AXIS2_PLACEMENT_3D ( 'NONE', #11, #163, #276 ) ;
#16 = MANIFOLD_SOLID_BREP ( 'Schnitt-Linear austragen2', #168 ) ;
#17 = VERTEX_POINT ( 'NONE', #130 ) ;
#18 = ADVANCED_BREP_SHAPE_REPRESENTATION ( '7400533_KSTP1', ( #16, #215 ), #85 ) ;
#19 = LINE ( 'NONE', #101, #235 ) ;
#20 = AXIS2_PLACEMENT_3D ( 'NONE', #179, #176, #28 ) ;
#21 = VECTOR ( 'NONE', #256, 1000.000000000000000 ) ;
#22 = EDGE_CURVE ( 'NONE', #34, #59, #270, .T. ) ;
#23 = EDGE_LOOP ( 'NONE', ( #88, #124 ) ) ;
#24 = DIRECTION ( 'NONE',  ( 0.0000000000000000000, 1.000000000000000000, 0.0000000000000000000 ) ) ;
#25 = ORIENTED_EDGE ( 'NONE', *, *, #35, .F. ) ;
#26 = ADVANCED_FACE ( 'NONE', ( #54, #275 ), #108, .T. ) ;
#27 = DIRECTION ( 'NONE',  ( 1.000000000000000000, 0.0000000000000000000, 0.0000000000000000000 ) ) ;
#28 = DIRECTION ( 'NONE',  ( 0.0000000000000000000, -0.0000000000000000000, 1.000000000000000000 ) ) ;
#29 = DIRECTION ( 'NONE',  ( 0.0000000000000000000, 0.0000000000000000000, 1.000000000000000000 ) ) ;
#30 = VECTOR ( 'NONE', #173, 1000.000000000000000 ) ;
#31 = CARTESIAN_POINT ( 'NONE',  ( -191.2500000000000300, -6.000000000000000000, -191.2499999999999700 ) ) ;
#32 = CARTESIAN_POINT ( 'NONE',  ( 0.0000000000000000000, -6.000000000000000000, 139.5000000000000000 ) ) ;
#33 =( NAMED_UNIT ( * ) SI_UNIT ( $, .STERADIAN. ) SOLID_ANGLE_UNIT ( ) );
#34 = VERTEX_POINT ( 'NONE', #89 ) ;
#35 = EDGE_CURVE ( 'NONE', #17, #100, #60, .T. ) ;
#36 = DIRECTION ( 'NONE',  ( 0.0000000000000000000, 0.0000000000000000000, 1.000000000000000000 ) ) ;
#37 = DIRECTION ( 'NONE',  ( 1.000000000000000000, 0.0000000000000000000, -1.451271927614583500E-016 ) ) ;
#38 = LINE ( 'NONE', #57, #30 ) ;
#39 = AXIS2_PLACEMENT_3D ( 'NONE', #224, #145, #29 ) ;
#40 = EDGE_CURVE ( 'NONE', #174, #208, #41, .T. ) ;
#41 = LINE ( 'NONE', #257, #102 ) ;
#42 = LINE ( 'NONE', #94, #13 ) ;
#43 =( NAMED_UNIT ( * ) SI_UNIT ( $, .STERADIAN. ) SOLID_ANGLE_UNIT ( ) );
#44 = EDGE_LOOP ( 'NONE', ( #161, #262, #192, #204 ) ) ;
#45 = PRESENTATION_STYLE_ASSIGNMENT (( #207 ) ) ;
#46 = CARTESIAN_POINT ( 'NONE',  ( 191.2500000000000300, 0.0000000000000000000, 191.2500000000000300 ) ) ;
#47 = ADVANCED_FACE ( 'NONE', ( #156, #206 ), #138, .F. ) ;
#48 = DIRECTION ( 'NONE',  ( -1.451271927614584000E-016, -0.0000000000000000000, -1.000000000000000000 ) ) ;
#49 = FILL_AREA_STYLE_COLOUR ( '', #261 ) ;
#50 = ORIENTED_EDGE ( 'NONE', *, *, #40, .F. ) ;
#51 = CARTESIAN_POINT ( 'NONE',  ( -191.2499999999999700, 0.0000000000000000000, 191.2500000000000300 ) ) ;
#52 =( NAMED_UNIT ( * ) PLANE_ANGLE_UNIT ( ) SI_UNIT ( $, .RADIAN. ) );
#53 =( GEOMETRIC_REPRESENTATION_CONTEXT ( 3 ) GLOBAL_UNCERTAINTY_ASSIGNED_CONTEXT ( ( #211 ) ) GLOBAL_UNIT_ASSIGNED_CONTEXT ( ( #177, #52, #112 ) ) REPRESENTATION_CONTEXT ( 'NONE', 'WORKASPACE' ) );
#54 = FACE_BOUND ( 'NONE', #23, .T. ) ;
#55 = DIRECTION ( 'NONE',  ( 0.0000000000000000000, 0.0000000000000000000, 1.000000000000000000 ) ) ;
#56 = ORIENTED_EDGE ( 'NONE', *, *, #152, .T. ) ;
#57 = CARTESIAN_POINT ( 'NONE',  ( -191.2499999999999700, -6.000000000000000000, 191.2500000000000300 ) ) ;
#58 =( LENGTH_UNIT ( ) NAMED_UNIT ( * ) SI_UNIT ( .MILLI., .METRE. ) );
#59 = VERTEX_POINT ( 'NONE', #95 ) ;
#60 = LINE ( 'NONE', #267, #113 ) ;
#61 = EDGE_CURVE ( 'NONE', #227, #100, #42, .T. ) ;
#62 = ORIENTED_EDGE ( 'NONE', *, *, #175, .T. ) ;
#63 = COLOUR_RGB ( '',1.000000000000000000, 1.000000000000000000, 1.000000000000000000 ) ;
#64 = CARTESIAN_POINT ( 'NONE',  ( 0.0000000000000000000, 0.0000000000000000000, 0.0000000000000000000 ) ) ;
#65 = MECHANICAL_DESIGN_GEOMETRIC_PRESENTATION_REPRESENTATION (  '', ( #70 ), #53 ) ;
#66 = ORIENTED_EDGE ( 'NONE', *, *, #170, .T. ) ;
#67 = ORIENTED_EDGE ( 'NONE', *, *, #187, .T. ) ;
#68 = CARTESIAN_POINT ( 'NONE',  ( -191.2500000000000300, -6.000000000000000000, -191.2499999999999700 ) ) ;
#69 = DIRECTION ( 'NONE',  ( 1.451271927614584000E-016, 0.0000000000000000000, 1.000000000000000000 ) ) ;
#70 = STYLED_ITEM ( 'NONE', ( #45 ), #16 ) ;
#71 = LINE ( 'NONE', #32, #210 ) ;
#72 = VECTOR ( 'NONE', #260, 1000.000000000000000 ) ;
#73 = DIRECTION ( 'NONE',  ( -0.0000000000000000000, 1.000000000000000000, -0.0000000000000000000 ) ) ;
#74 = UNCERTAINTY_MEASURE_WITH_UNIT (LENGTH_MEASURE( 1.000000000000000100E-005 ), #58, 'distance_accuracy_value', 'NONE');
#75 = CARTESIAN_POINT ( 'NONE',  ( -191.2499999999999700, -6.000000000000000000, 191.2500000000000300 ) ) ;
#76 = VECTOR ( 'NONE', #245, 1000.000000000000000 ) ;
#77 = ORIENTED_EDGE ( 'NONE', *, *, #230, .T. ) ;
#78 = CARTESIAN_POINT ( 'NONE',  ( 0.0000000000000000000, 0.0000000000000000000, 0.0000000000000000000 ) ) ;
#79 = CARTESIAN_POINT ( 'NONE',  ( 1.708382284810557800E-014, 0.0000000000000000000, -139.5000000000000000 ) ) ;
#80 = LINE ( 'NONE', #147, #186 ) ;
#81 = EDGE_CURVE ( 'NONE', #118, #239, #71, .T. ) ;
#82 = ORIENTED_EDGE ( 'NONE', *, *, #61, .T. ) ;
#83 = CYLINDRICAL_SURFACE ( 'NONE', #274, 139.5000000000000000 ) ;
#84 = ORIENTED_EDGE ( 'NONE', *, *, #127, .F. ) ;
#85 =( GEOMETRIC_REPRESENTATION_CONTEXT ( 3 ) GLOBAL_UNCERTAINTY_ASSIGNED_CONTEXT ( ( #74 ) ) GLOBAL_UNIT_ASSIGNED_CONTEXT ( ( #58, #160, #33 ) ) REPRESENTATION_CONTEXT ( 'NONE', 'WORKASPACE' ) );
#86 = CIRCLE ( 'NONE', #39, 139.5000000000000000 ) ;
#87 = PRODUCT ( '7400533_KSTP1', '7400533_KSTP1', '', ( #263 ) ) ;
#88 = ORIENTED_EDGE ( 'NONE', *, *, #159, .F. ) ;
#89 = CARTESIAN_POINT ( 'NONE',  ( -191.2500000000000300, -6.000000000000000000, -191.2499999999999700 ) ) ;
#90 = ADVANCED_FACE ( 'NONE', ( #93 ), #146, .F. ) ;
#91 = DIRECTION ( 'NONE',  ( 0.0000000000000000000, 0.0000000000000000000, 1.000000000000000000 ) ) ;
#92 = SHAPE_DEFINITION_REPRESENTATION ( #188, #18 ) ;
#93 = FACE_OUTER_BOUND ( 'NONE', #182, .T. ) ;
#94 = CARTESIAN_POINT ( 'NONE',  ( 191.2500000000000300, -6.000000000000000000, 191.2500000000000300 ) ) ;
#95 = CARTESIAN_POINT ( 'NONE',  ( -191.2499999999999700, -6.000000000000000000, 191.2500000000000300 ) ) ;
#96 = EDGE_CURVE ( 'NONE', #34, #132, #265, .T. ) ;
#97 = DIRECTION ( 'NONE',  ( -1.451271927614584000E-016, -0.0000000000000000000, -1.000000000000000000 ) ) ;
#98 = SURFACE_SIDE_STYLE ('',( #238 ) ) ;
#99 = ORIENTED_EDGE ( 'NONE', *, *, #81, .T. ) ;
#100 = VERTEX_POINT ( 'NONE', #46 ) ;
#101 = CARTESIAN_POINT ( 'NONE',  ( 191.2499999999999700, -6.000000000000000000, -191.2499999999999700 ) ) ;
#102 = VECTOR ( 'NONE', #4, 1000.000000000000000 ) ;
#103 = ORIENTED_EDGE ( 'NONE', *, *, #164, .T. ) ;
#104 = PRODUCT_DEFINITION_CONTEXT ( 'detailed design', #9, 'design' ) ;
#105 = ORIENTED_EDGE ( 'NONE', *, *, #273, .F. ) ;
#106 = ORIENTED_EDGE ( 'NONE', *, *, #22, .F. ) ;
#107 = ORIENTED_EDGE ( 'NONE', *, *, #40, .T. ) ;
#108 = PLANE ( 'NONE',  #228 ) ;
#109 = ADVANCED_FACE ( 'NONE', ( #198 ), #183, .T. ) ;
#110 = DIRECTION ( 'NONE',  ( -1.451271927614583500E-016, 0.0000000000000000000, -1.000000000000000000 ) ) ;
#111 = VERTEX_POINT ( 'NONE', #191 ) ;
#112 =( NAMED_UNIT ( * ) SI_UNIT ( $, .STERADIAN. ) SOLID_ANGLE_UNIT ( ) );
#113 = VECTOR ( 'NONE', #27, 1000.000000000000000 ) ;
#114 = CARTESIAN_POINT ( 'NONE',  ( 191.2499999999999700, -6.000000000000000000, -191.2499999999999700 ) ) ;
#115 = ORIENTED_EDGE ( 'NONE', *, *, #175, .F. ) ;
#116 = CARTESIAN_POINT ( 'NONE',  ( 0.0000000000000000000, -6.000000000000000000, 0.0000000000000000000 ) ) ;
#117 = FILL_AREA_STYLE_COLOUR ( '', #63 ) ;
#118 = VERTEX_POINT ( 'NONE', #214 ) ;
#119 = CARTESIAN_POINT ( 'NONE',  ( -191.2500000000000300, 0.0000000000000000000, -191.2499999999999700 ) ) ;
#120 = PRESENTATION_STYLE_ASSIGNMENT (( #181 ) ) ;
#121 = LINE ( 'NONE', #119, #72 ) ;
#122 = PRODUCT_RELATED_PRODUCT_CATEGORY ( 'part', '', ( #87 ) ) ;
#123 = EDGE_CURVE ( 'NONE', #59, #17, #38, .T. ) ;
#124 = ORIENTED_EDGE ( 'NONE', *, *, #230, .F. ) ;
#125 = UNCERTAINTY_MEASURE_WITH_UNIT (LENGTH_MEASURE( 1.000000000000000100E-005 ), #180, 'distance_accuracy_value', 'NONE');
#126 = EDGE_LOOP ( 'NONE', ( #25, #3, #162, #82 ) ) ;
#127 = EDGE_CURVE ( 'NONE', #174, #118, #86, .T. ) ;
#128 = LINE ( 'NONE', #185, #14 ) ;
#129 = STYLED_ITEM ( 'NONE', ( #120 ), #18 ) ;
#130 = CARTESIAN_POINT ( 'NONE',  ( -191.2499999999999700, 0.0000000000000000000, 191.2500000000000300 ) ) ;
#131 = ADVANCED_FACE ( 'NONE', ( #252 ), #226, .T. ) ;
#132 = VERTEX_POINT ( 'NONE', #258 ) ;
#133 = CARTESIAN_POINT ( 'NONE',  ( -191.2500000000000300, 0.0000000000000000000, -191.2499999999999700 ) ) ;
#134 = DIRECTION ( 'NONE',  ( -1.000000000000000000, 0.0000000000000000000, -0.0000000000000000000 ) ) ;
#135 = FILL_AREA_STYLE ('',( #49 ) ) ;
#136 = DIRECTION ( 'NONE',  ( 0.0000000000000000000, -0.0000000000000000000, 1.000000000000000000 ) ) ;
#137 = CIRCLE ( 'NONE', #220, 139.5000000000000000 ) ;
#138 = PLANE ( 'NONE',  #20 ) ;
#139 = PLANE ( 'NONE',  #15 ) ;
#140 = FILL_AREA_STYLE ('',( #117 ) ) ;
#141 = CARTESIAN_POINT ( 'NONE',  ( 0.0000000000000000000, 0.0000000000000000000, 139.5000000000000000 ) ) ;
#142 = ORIENTED_EDGE ( 'NONE', *, *, #96, .T. ) ;
#143 = APPLICATION_PROTOCOL_DEFINITION ( 'draft international standard', 'automotive_design', 1998, #9 ) ;
#144 = PRODUCT_DEFINITION ( 'UNKNOWN', '', #232, #104 ) ;
#145 = DIRECTION ( 'NONE',  ( 0.0000000000000000000, 1.000000000000000000, 0.0000000000000000000 ) ) ;
#146 = CYLINDRICAL_SURFACE ( 'NONE', #253, 139.5000000000000000 ) ;
#147 = CARTESIAN_POINT ( 'NONE',  ( 191.2499999999999700, -6.000000000000000000, -191.2499999999999700 ) ) ;
#148 =( GEOMETRIC_REPRESENTATION_CONTEXT ( 3 ) GLOBAL_UNCERTAINTY_ASSIGNED_CONTEXT ( ( #125 ) ) GLOBAL_UNIT_ASSIGNED_CONTEXT ( ( #180, #202, #43 ) ) REPRESENTATION_CONTEXT ( 'NONE', 'WORKASPACE' ) );
#149 = ORIENTED_EDGE ( 'NONE', *, *, #164, .F. ) ;
#150 = VECTOR ( 'NONE', #194, 1000.000000000000000 ) ;
#151 = SURFACE_STYLE_FILL_AREA ( #135 ) ;
#152 = EDGE_CURVE ( 'NONE', #118, #174, #248, .T. ) ;
#153 = ORIENTED_EDGE ( 'NONE', *, *, #127, .T. ) ;
#154 = DIRECTION ( 'NONE',  ( 0.0000000000000000000, 1.000000000000000000, 0.0000000000000000000 ) ) ;
#155 = DIRECTION ( 'NONE',  ( 0.0000000000000000000, 0.0000000000000000000, 1.000000000000000000 ) ) ;
#156 = FACE_BOUND ( 'NONE', #165, .T. ) ;
#157 = DIRECTION ( 'NONE',  ( 0.0000000000000000000, 0.0000000000000000000, -1.000000000000000000 ) ) ;
#158 = CARTESIAN_POINT ( 'NONE',  ( -191.2499999999999700, -6.000000000000000000, 191.2500000000000300 ) ) ;
#159 = EDGE_CURVE ( 'NONE', #239, #208, #137, .T. ) ;
#160 =( NAMED_UNIT ( * ) PLANE_ANGLE_UNIT ( ) SI_UNIT ( $, .RADIAN. ) );
#161 = ORIENTED_EDGE ( 'NONE', *, *, #200, .F. ) ;
#162 = ORIENTED_EDGE ( 'NONE', *, *, #209, .T. ) ;
#163 = DIRECTION ( 'NONE',  ( -1.000000000000000000, 0.0000000000000000000, 1.451271927614583500E-016 ) ) ;
#164 = EDGE_CURVE ( 'NONE', #111, #132, #184, .T. ) ;
#165 = EDGE_LOOP ( 'NONE', ( #56, #153 ) ) ;
#166 = CARTESIAN_POINT ( 'NONE',  ( -191.2500000000000300, -6.000000000000000000, -191.2499999999999700 ) ) ;
#167 = VECTOR ( 'NONE', #69, 1000.000000000000000 ) ;
#168 = CLOSED_SHELL ( 'NONE', ( #216, #193, #131, #109, #2, #47, #26, #90 ) ) ;
#169 = ORIENTED_EDGE ( 'NONE', *, *, #152, .F. ) ;
#170 = EDGE_CURVE ( 'NONE', #172, #111, #80, .T. ) ;
#171 = LINE ( 'NONE', #7, #76 ) ;
#172 = VERTEX_POINT ( 'NONE', #114 ) ;
#173 = DIRECTION ( 'NONE',  ( 0.0000000000000000000, 1.000000000000000000, 0.0000000000000000000 ) ) ;
#174 = VERTEX_POINT ( 'NONE', #12 ) ;
#175 = EDGE_CURVE ( 'NONE', #100, #111, #128, .T. ) ;
#176 = DIRECTION ( 'NONE',  ( 0.0000000000000000000, 1.000000000000000000, 0.0000000000000000000 ) ) ;
#177 =( LENGTH_UNIT ( ) NAMED_UNIT ( * ) SI_UNIT ( .MILLI., .METRE. ) );
#178 = FACE_OUTER_BOUND ( 'NONE', #234, .T. ) ;
#179 = CARTESIAN_POINT ( 'NONE',  ( -191.2499999999999700, -6.000000000000000000, 191.2500000000000300 ) ) ;
#180 =( LENGTH_UNIT ( ) NAMED_UNIT ( * ) SI_UNIT ( .MILLI., .METRE. ) );
#181 = SURFACE_STYLE_USAGE ( .BOTH. , #98 ) ;
#182 = EDGE_LOOP ( 'NONE', ( #50, #169, #99, #221 ) ) ;
#183 = PLANE ( 'NONE',  #5 ) ;
#184 = LINE ( 'NONE', #133, #21 ) ;
#185 = CARTESIAN_POINT ( 'NONE',  ( 191.2499999999999700, 0.0000000000000000000, -191.2499999999999700 ) ) ;
#186 = VECTOR ( 'NONE', #219, 1000.000000000000000 ) ;
#187 = EDGE_CURVE ( 'NONE', #227, #172, #19, .T. ) ;
#188 = PRODUCT_DEFINITION_SHAPE ( 'NONE', 'NONE',  #144 ) ;
#189 = EDGE_LOOP ( 'NONE', ( #271, #10, #62, #103 ) ) ;
#190 = CIRCLE ( 'NONE', #259, 139.5000000000000000 ) ;
#191 = CARTESIAN_POINT ( 'NONE',  ( 191.2499999999999700, 0.0000000000000000000, -191.2499999999999700 ) ) ;
#192 = ORIENTED_EDGE ( 'NONE', *, *, #22, .T. ) ;
#193 = ADVANCED_FACE ( 'NONE', ( #242 ), #139, .T. ) ;
#194 = DIRECTION ( 'NONE',  ( 0.0000000000000000000, 1.000000000000000000, 0.0000000000000000000 ) ) ;
#195 = PLANE ( 'NONE',  #197 ) ;
#196 = DIRECTION ( 'NONE',  ( 0.0000000000000000000, 1.000000000000000000, 0.0000000000000000000 ) ) ;
#197 = AXIS2_PLACEMENT_3D ( 'NONE', #158, #36, #241 ) ;
#198 = FACE_OUTER_BOUND ( 'NONE', #246, .T. ) ;
#199 = SURFACE_SIDE_STYLE ('',( #151 ) ) ;
#200 = EDGE_CURVE ( 'NONE', #132, #17, #121, .T. ) ;
#201 = DIRECTION ( 'NONE',  ( 0.0000000000000000000, 1.000000000000000000, 0.0000000000000000000 ) ) ;
#202 =( NAMED_UNIT ( * ) PLANE_ANGLE_UNIT ( ) SI_UNIT ( $, .RADIAN. ) );
#203 = DIRECTION ( 'NONE',  ( 0.0000000000000000000, 1.000000000000000000, 0.0000000000000000000 ) ) ;
#204 = ORIENTED_EDGE ( 'NONE', *, *, #123, .T. ) ;
#205 = DIRECTION ( 'NONE',  ( 0.0000000000000000000, 0.0000000000000000000, 1.000000000000000000 ) ) ;
#206 = FACE_OUTER_BOUND ( 'NONE', #254, .T. ) ;
#207 = SURFACE_STYLE_USAGE ( .BOTH. , #199 ) ;
#208 = VERTEX_POINT ( 'NONE', #79 ) ;
#209 = EDGE_CURVE ( 'NONE', #59, #227, #231, .T. ) ;
#210 = VECTOR ( 'NONE', #255, 1000.000000000000000 ) ;
#211 = UNCERTAINTY_MEASURE_WITH_UNIT (LENGTH_MEASURE( 1.000000000000000100E-005 ), #177, 'distance_accuracy_value', 'NONE');
#212 = ORIENTED_EDGE ( 'NONE', *, *, #170, .F. ) ;
#213 = ORIENTED_EDGE ( 'NONE', *, *, #209, .F. ) ;
#214 = CARTESIAN_POINT ( 'NONE',  ( 0.0000000000000000000, -6.000000000000000000, 139.5000000000000000 ) ) ;
#215 = AXIS2_PLACEMENT_3D ( 'NONE', #247, #55, #225 ) ;
#216 = ADVANCED_FACE ( 'NONE', ( #178 ), #83, .F. ) ;
#217 = CARTESIAN_POINT ( 'NONE',  ( 191.2499999999999700, -6.000000000000000000, -191.2499999999999700 ) ) ;
#218 = ORIENTED_EDGE ( 'NONE', *, *, #81, .F. ) ;
#219 = DIRECTION ( 'NONE',  ( 0.0000000000000000000, 1.000000000000000000, 0.0000000000000000000 ) ) ;
#220 = AXIS2_PLACEMENT_3D ( 'NONE', #64, #154, #155 ) ;
#221 = ORIENTED_EDGE ( 'NONE', *, *, #159, .T. ) ;
#222 = EDGE_LOOP ( 'NONE', ( #149, #212, #272, #142 ) ) ;
#223 = DIRECTION ( 'NONE',  ( 1.000000000000000000, 0.0000000000000000000, 0.0000000000000000000 ) ) ;
#224 = CARTESIAN_POINT ( 'NONE',  ( 0.0000000000000000000, -6.000000000000000000, 0.0000000000000000000 ) ) ;
#225 = DIRECTION ( 'NONE',  ( 1.000000000000000000, 0.0000000000000000000, 0.0000000000000000000 ) ) ;
#226 = PLANE ( 'NONE',  #251 ) ;
#227 = VERTEX_POINT ( 'NONE', #8 ) ;
#228 = AXIS2_PLACEMENT_3D ( 'NONE', #51, #24, #136 ) ;
#229 = FACE_OUTER_BOUND ( 'NONE', #126, .T. ) ;
#230 = EDGE_CURVE ( 'NONE', #208, #239, #190, .T. ) ;
#231 = LINE ( 'NONE', #75, #6 ) ;
#232 = PRODUCT_DEFINITION_FORMATION_WITH_SPECIFIED_SOURCE ( 'ANY', '', #87, .NOT_KNOWN. ) ;
#233 = AXIS2_PLACEMENT_3D ( 'NONE', #243, #196, #1 ) ;
#234 = EDGE_LOOP ( 'NONE', ( #84, #107, #77, #218 ) ) ;
#235 = VECTOR ( 'NONE', #97, 1000.000000000000000 ) ;
#236 = PRESENTATION_LAYER_ASSIGNMENT (  '', '', ( #129 ) ) ;
#237 = DIRECTION ( 'NONE',  ( -0.0000000000000000000, 1.000000000000000000, -0.0000000000000000000 ) ) ;
#238 = SURFACE_STYLE_FILL_AREA ( #140 ) ;
#239 = VERTEX_POINT ( 'NONE', #141 ) ;
#240 = CARTESIAN_POINT ( 'NONE',  ( 0.0000000000000000000, -6.000000000000000000, 0.0000000000000000000 ) ) ;
#241 = DIRECTION ( 'NONE',  ( 1.000000000000000000, 0.0000000000000000000, -0.0000000000000000000 ) ) ;
#242 = FACE_OUTER_BOUND ( 'NONE', #44, .T. ) ;
#243 = CARTESIAN_POINT ( 'NONE',  ( 0.0000000000000000000, -6.000000000000000000, 0.0000000000000000000 ) ) ;
#244 = APPLICATION_PROTOCOL_DEFINITION ( 'draft international standard', 'automotive_design', 1998, #264 ) ;
#245 = DIRECTION ( 'NONE',  ( -1.000000000000000000, -0.0000000000000000000, -0.0000000000000000000 ) ) ;
#246 = EDGE_LOOP ( 'NONE', ( #115, #266, #67, #66 ) ) ;
#247 = CARTESIAN_POINT ( 'NONE',  ( 0.0000000000000000000, 0.0000000000000000000, 0.0000000000000000000 ) ) ;
#248 = CIRCLE ( 'NONE', #233, 139.5000000000000000 ) ;
#249 = MECHANICAL_DESIGN_GEOMETRIC_PRESENTATION_REPRESENTATION (  '', ( #129 ), #148 ) ;
#250 = ORIENTED_EDGE ( 'NONE', *, *, #187, .F. ) ;
#251 = AXIS2_PLACEMENT_3D ( 'NONE', #166, #157, #134 ) ;
#252 = FACE_OUTER_BOUND ( 'NONE', #222, .T. ) ;
#253 = AXIS2_PLACEMENT_3D ( 'NONE', #240, #73, #91 ) ;
#254 = EDGE_LOOP ( 'NONE', ( #106, #105, #250, #213 ) ) ;
#255 = DIRECTION ( 'NONE',  ( -0.0000000000000000000, 1.000000000000000000, -0.0000000000000000000 ) ) ;
#256 = DIRECTION ( 'NONE',  ( -1.000000000000000000, -0.0000000000000000000, -0.0000000000000000000 ) ) ;
#257 = CARTESIAN_POINT ( 'NONE',  ( 1.708382284810557800E-014, -6.000000000000000000, -139.5000000000000000 ) ) ;
#258 = CARTESIAN_POINT ( 'NONE',  ( -191.2500000000000300, 0.0000000000000000000, -191.2499999999999700 ) ) ;
#259 = AXIS2_PLACEMENT_3D ( 'NONE', #78, #203, #205 ) ;
#260 = DIRECTION ( 'NONE',  ( 1.451271927614584000E-016, 0.0000000000000000000, 1.000000000000000000 ) ) ;
#261 = COLOUR_RGB ( '',1.000000000000000000, 1.000000000000000000, 1.000000000000000000 ) ;
#262 = ORIENTED_EDGE ( 'NONE', *, *, #96, .F. ) ;
#263 = PRODUCT_CONTEXT ( 'NONE', #264, 'mechanical' ) ;
#264 = APPLICATION_CONTEXT ( 'automotive_design' ) ;
#265 = LINE ( 'NONE', #68, #150 ) ;
#266 = ORIENTED_EDGE ( 'NONE', *, *, #61, .F. ) ;
#267 = CARTESIAN_POINT ( 'NONE',  ( -191.2499999999999700, 0.0000000000000000000, 191.2500000000000300 ) ) ;
#268 = DIRECTION ( 'NONE',  ( 0.0000000000000000000, 0.0000000000000000000, 1.000000000000000000 ) ) ;
#269 = PRESENTATION_LAYER_ASSIGNMENT (  '', '', ( #70 ) ) ;
#270 = LINE ( 'NONE', #31, #167 ) ;
#271 = ORIENTED_EDGE ( 'NONE', *, *, #200, .T. ) ;
#272 = ORIENTED_EDGE ( 'NONE', *, *, #273, .T. ) ;
#273 = EDGE_CURVE ( 'NONE', #172, #34, #171, .T. ) ;
#274 = AXIS2_PLACEMENT_3D ( 'NONE', #116, #237, #268 ) ;
#275 = FACE_OUTER_BOUND ( 'NONE', #189, .T. ) ;
#276 = DIRECTION ( 'NONE',  ( 1.451271927614583500E-016, 0.0000000000000000000, 1.000000000000000000 ) ) ;
ENDSEC;
END-ISO-10303-21;
