ISO-10303-21;
HEADER;
FILE_DESCRIPTION (( 'STEP AP214' ),
    '1' );
FILE_NAME ('7400549_KSTP1.stp',
    '2016-08-17T13:35:18',
    ( '' ),
    ( '' ),
    'SwSTEP 2.0',
    'SolidWorks 2014',
    '' );
FILE_SCHEMA (( 'AUTOMOTIVE_DESIGN' ));
ENDSEC;

DATA;
#1 = CARTESIAN_POINT ( 'NONE',  ( 1.892079304682660900E-014, -3.000000000000000000, -154.5000000000000000 ) ) ;
#2 = FILL_AREA_STYLE ('',( #82 ) ) ;
#3 = LINE ( 'NONE', #25, #130 ) ;
#4 = VERTEX_POINT ( 'NONE', #135 ) ;
#5 = CARTESIAN_POINT ( 'NONE',  ( 0.0000000000000000000, -6.000000000000000000, 152.5000000000000000 ) ) ;
#6 = DIRECTION ( 'NONE',  ( 0.0000000000000000000, 1.000000000000000000, 0.0000000000000000000 ) ) ;
#7 = EDGE_CURVE ( 'NONE', #126, #242, #353, .T. ) ;
#8 = DIRECTION ( 'NONE',  ( 0.0000000000000000000, -0.0000000000000000000, 1.000000000000000000 ) ) ;
#9 = ORIENTED_EDGE ( 'NONE', *, *, #51, .F. ) ;
#10 = AXIS2_PLACEMENT_3D ( 'NONE', #182, #163, #319 ) ;
#11 = SHAPE_DEFINITION_REPRESENTATION ( #29, #198 ) ;
#12 = SURFACE_STYLE_FILL_AREA ( #250 ) ;
#13 = LINE ( 'NONE', #156, #290 ) ;
#14 = ORIENTED_EDGE ( 'NONE', *, *, #27, .F. ) ;
#15 =( GEOMETRIC_REPRESENTATION_CONTEXT ( 3 ) GLOBAL_UNCERTAINTY_ASSIGNED_CONTEXT ( ( #257 ) ) GLOBAL_UNIT_ASSIGNED_CONTEXT ( ( #67, #111, #137 ) ) REPRESENTATION_CONTEXT ( 'NONE', 'WORKASPACE' ) );
#16 = ORIENTED_EDGE ( 'NONE', *, *, #208, .F. ) ;
#17 = CARTESIAN_POINT ( 'NONE',  ( 1.867586368699713500E-014, -6.000000000000000000, -152.5000000000000000 ) ) ;
#18 = LINE ( 'NONE', #187, #298 ) ;
#19 = VERTEX_POINT ( 'NONE', #95 ) ;
#20 = ADVANCED_FACE ( 'NONE', ( #281, #115 ), #107, .T. ) ;
#21 = DIRECTION ( 'NONE',  ( 0.0000000000000000000, 0.0000000000000000000, 1.000000000000000000 ) ) ;
#22 = DIRECTION ( 'NONE',  ( 0.0000000000000000000, 0.0000000000000000000, 1.000000000000000000 ) ) ;
#23 = EDGE_CURVE ( 'NONE', #164, #19, #56, .T. ) ;
#24 = ORIENTED_EDGE ( 'NONE', *, *, #166, .F. ) ;
#25 = CARTESIAN_POINT ( 'NONE',  ( -191.2500000000000300, -6.000000000000000000, -191.2499999999999700 ) ) ;
#26 = LINE ( 'NONE', #307, #87 ) ;
#27 = EDGE_CURVE ( 'NONE', #72, #310, #138, .T. ) ;
#28 = DIRECTION ( 'NONE',  ( 0.0000000000000000000, 0.0000000000000000000, 1.000000000000000000 ) ) ;
#29 = PRODUCT_DEFINITION_SHAPE ( 'NONE', 'NONE',  #202 ) ;
#30 = DIRECTION ( 'NONE',  ( 0.0000000000000000000, 0.0000000000000000000, 1.000000000000000000 ) ) ;
#31 =( NAMED_UNIT ( * ) SI_UNIT ( $, .STERADIAN. ) SOLID_ANGLE_UNIT ( ) );
#32 = DIRECTION ( 'NONE',  ( 1.000000000000000000, 0.0000000000000000000, 0.0000000000000000000 ) ) ;
#33 = ORIENTED_EDGE ( 'NONE', *, *, #7, .F. ) ;
#34 =( GEOMETRIC_REPRESENTATION_CONTEXT ( 3 ) GLOBAL_UNCERTAINTY_ASSIGNED_CONTEXT ( ( #234 ) ) GLOBAL_UNIT_ASSIGNED_CONTEXT ( ( #253, #279, #31 ) ) REPRESENTATION_CONTEXT ( 'NONE', 'WORKASPACE' ) );
#35 = CARTESIAN_POINT ( 'NONE',  ( 191.2499999999999700, -6.000000000000000000, -191.2499999999999700 ) ) ;
#36 = LINE ( 'NONE', #17, #333 ) ;
#37 = ORIENTED_EDGE ( 'NONE', *, *, #342, .F. ) ;
#38 = EDGE_CURVE ( 'NONE', #242, #164, #210, .T. ) ;
#39 = CARTESIAN_POINT ( 'NONE',  ( -191.2499999999999700, 0.0000000000000000000, 191.2500000000000300 ) ) ;
#40 = LINE ( 'NONE', #322, #254 ) ;
#41 = EDGE_LOOP ( 'NONE', ( #277, #24, #139, #145 ) ) ;
#42 = PLANE ( 'NONE',  #232 ) ;
#43 = PRESENTATION_LAYER_ASSIGNMENT (  '', '', ( #118 ) ) ;
#44 = ORIENTED_EDGE ( 'NONE', *, *, #301, .F. ) ;
#45 = PRODUCT_CONTEXT ( 'NONE', #85, 'mechanical' ) ;
#46 = DIRECTION ( 'NONE',  ( 1.451271927614583500E-016, 0.0000000000000000000, 1.000000000000000000 ) ) ;
#47 = FACE_OUTER_BOUND ( 'NONE', #354, .T. ) ;
#48 = ORIENTED_EDGE ( 'NONE', *, *, #38, .T. ) ;
#49 = DIRECTION ( 'NONE',  ( 0.0000000000000000000, 1.000000000000000000, 0.0000000000000000000 ) ) ;
#50 = FACE_OUTER_BOUND ( 'NONE', #191, .T. ) ;
#51 = EDGE_CURVE ( 'NONE', #153, #65, #204, .T. ) ;
#52 = EDGE_LOOP ( 'NONE', ( #251, #150 ) ) ;
#53 = CARTESIAN_POINT ( 'NONE',  ( 191.2500000000000300, -6.000000000000000000, 191.2500000000000300 ) ) ;
#54 = AXIS2_PLACEMENT_3D ( 'NONE', #73, #288, #326 ) ;
#55 = DIRECTION ( 'NONE',  ( 0.0000000000000000000, 0.0000000000000000000, 1.000000000000000000 ) ) ;
#56 = CIRCLE ( 'NONE', #325, 154.5000000000000000 ) ;
#57 = ORIENTED_EDGE ( 'NONE', *, *, #27, .T. ) ;
#58 = AXIS2_PLACEMENT_3D ( 'NONE', #227, #143, #313 ) ;
#59 = CYLINDRICAL_SURFACE ( 'NONE', #61, 152.5000000000000000 ) ;
#60 = ORIENTED_EDGE ( 'NONE', *, *, #38, .F. ) ;
#61 = AXIS2_PLACEMENT_3D ( 'NONE', #226, #314, #22 ) ;
#62 = STYLED_ITEM ( 'NONE', ( #176 ), #198 ) ;
#63 = VECTOR ( 'NONE', #297, 1000.000000000000000 ) ;
#64 = EDGE_LOOP ( 'NONE', ( #230, #328 ) ) ;
#65 = VERTEX_POINT ( 'NONE', #5 ) ;
#66 = DIRECTION ( 'NONE',  ( -0.0000000000000000000, 1.000000000000000000, -0.0000000000000000000 ) ) ;
#67 =( LENGTH_UNIT ( ) NAMED_UNIT ( * ) SI_UNIT ( .MILLI., .METRE. ) );
#68 = LINE ( 'NONE', #112, #345 ) ;
#69 = EDGE_LOOP ( 'NONE', ( #44, #228 ) ) ;
#70 = ADVANCED_FACE ( 'NONE', ( #340, #47 ), #271, .F. ) ;
#71 = AXIS2_PLACEMENT_3D ( 'NONE', #185, #268, #55 ) ;
#72 = VERTEX_POINT ( 'NONE', #77 ) ;
#73 = CARTESIAN_POINT ( 'NONE',  ( 0.0000000000000000000, -3.000000000000000000, 0.0000000000000000000 ) ) ;
#74 = DIRECTION ( 'NONE',  ( 1.451271927614584000E-016, 0.0000000000000000000, 1.000000000000000000 ) ) ;
#75 = CARTESIAN_POINT ( 'NONE',  ( -191.2499999999999700, -6.000000000000000000, 191.2500000000000300 ) ) ;
#76 = AXIS2_PLACEMENT_3D ( 'NONE', #197, #356, #339 ) ;
#77 = CARTESIAN_POINT ( 'NONE',  ( 191.2499999999999700, 0.0000000000000000000, -191.2499999999999700 ) ) ;
#78 = FACE_OUTER_BOUND ( 'NONE', #121, .T. ) ;
#79 = ORIENTED_EDGE ( 'NONE', *, *, #132, .T. ) ;
#80 = PLANE ( 'NONE',  #89 ) ;
#81 = AXIS2_PLACEMENT_3D ( 'NONE', #295, #30, #224 ) ;
#82 = FILL_AREA_STYLE_COLOUR ( '', #311 ) ;
#83 = PRESENTATION_LAYER_ASSIGNMENT (  '', '', ( #62 ) ) ;
#84 = EDGE_LOOP ( 'NONE', ( #120, #110, #294, #334 ) ) ;
#85 = APPLICATION_CONTEXT ( 'automotive_design' ) ;
#86 = PRODUCT ( '7400549_KSTP1', '7400549_KSTP1', '', ( #45 ) ) ;
#87 = VECTOR ( 'NONE', #98, 1000.000000000000000 ) ;
#88 = ORIENTED_EDGE ( 'NONE', *, *, #335, .F. ) ;
#89 = AXIS2_PLACEMENT_3D ( 'NONE', #101, #343, #238 ) ;
#90 = CARTESIAN_POINT ( 'NONE',  ( 0.0000000000000000000, -3.000000000000000000, 154.5000000000000000 ) ) ;
#91 = CARTESIAN_POINT ( 'NONE',  ( -191.2500000000000300, -6.000000000000000000, -191.2499999999999700 ) ) ;
#92 = DIRECTION ( 'NONE',  ( 0.0000000000000000000, 0.0000000000000000000, 1.000000000000000000 ) ) ;
#93 = LINE ( 'NONE', #289, #309 ) ;
#94 = VERTEX_POINT ( 'NONE', #53 ) ;
#95 = CARTESIAN_POINT ( 'NONE',  ( 0.0000000000000000000, 0.0000000000000000000, 154.5000000000000000 ) ) ;
#96 = ADVANCED_FACE ( 'NONE', ( #113 ), #42, .T. ) ;
#97 = AXIS2_PLACEMENT_3D ( 'NONE', #258, #261, #293 ) ;
#98 = DIRECTION ( 'NONE',  ( 0.0000000000000000000, 1.000000000000000000, 0.0000000000000000000 ) ) ;
#99 = ORIENTED_EDGE ( 'NONE', *, *, #142, .T. ) ;
#100 = MECHANICAL_DESIGN_GEOMETRIC_PRESENTATION_REPRESENTATION (  '', ( #62 ), #122 ) ;
#101 = CARTESIAN_POINT ( 'NONE',  ( -191.2500000000000300, -6.000000000000000000, -191.2499999999999700 ) ) ;
#102 = DIRECTION ( 'NONE',  ( 0.0000000000000000000, 0.0000000000000000000, 1.000000000000000000 ) ) ;
#103 = DIRECTION ( 'NONE',  ( 1.000000000000000000, 0.0000000000000000000, -1.451271927614583500E-016 ) ) ;
#104 = FACE_BOUND ( 'NONE', #52, .T. ) ;
#105 = ORIENTED_EDGE ( 'NONE', *, *, #338, .T. ) ;
#106 = DIRECTION ( 'NONE',  ( -0.0000000000000000000, 1.000000000000000000, -0.0000000000000000000 ) ) ;
#107 = PLANE ( 'NONE',  #303 ) ;
#108 =( NAMED_UNIT ( * ) SI_UNIT ( $, .STERADIAN. ) SOLID_ANGLE_UNIT ( ) );
#109 = EDGE_LOOP ( 'NONE', ( #212, #285, #180, #151 ) ) ;
#110 = ORIENTED_EDGE ( 'NONE', *, *, #315, .F. ) ;
#111 =( NAMED_UNIT ( * ) PLANE_ANGLE_UNIT ( ) SI_UNIT ( $, .RADIAN. ) );
#112 = CARTESIAN_POINT ( 'NONE',  ( -191.2499999999999700, 0.0000000000000000000, 191.2500000000000300 ) ) ;
#113 = FACE_OUTER_BOUND ( 'NONE', #84, .T. ) ;
#114 = ORIENTED_EDGE ( 'NONE', *, *, #142, .F. ) ;
#115 = FACE_OUTER_BOUND ( 'NONE', #256, .T. ) ;
#116 = EDGE_CURVE ( 'NONE', #282, #94, #195, .T. ) ;
#117 = PRODUCT_DEFINITION_CONTEXT ( 'detailed design', #174, 'design' ) ;
#118 = STYLED_ITEM ( 'NONE', ( #189 ), #348 ) ;
#119 = CYLINDRICAL_SURFACE ( 'NONE', #54, 154.5000000000000000 ) ;
#120 = ORIENTED_EDGE ( 'NONE', *, *, #190, .F. ) ;
#121 = EDGE_LOOP ( 'NONE', ( #14, #37, #286, #249 ) ) ;
#122 =( GEOMETRIC_REPRESENTATION_CONTEXT ( 3 ) GLOBAL_UNCERTAINTY_ASSIGNED_CONTEXT ( ( #331 ) ) GLOBAL_UNIT_ASSIGNED_CONTEXT ( ( #278, #243, #108 ) ) REPRESENTATION_CONTEXT ( 'NONE', 'WORKASPACE' ) );
#123 = VECTOR ( 'NONE', #317, 1000.000000000000000 ) ;
#124 = EDGE_CURVE ( 'NONE', #94, #216, #40, .T. ) ;
#125 = CARTESIAN_POINT ( 'NONE',  ( 0.0000000000000000000, -3.000000000000000000, 0.0000000000000000000 ) ) ;
#126 = VERTEX_POINT ( 'NONE', #90 ) ;
#127 = DIRECTION ( 'NONE',  ( 0.0000000000000000000, 0.0000000000000000000, 1.000000000000000000 ) ) ;
#128 = ADVANCED_FACE ( 'NONE', ( #104, #184 ), #296, .T. ) ;
#129 = CARTESIAN_POINT ( 'NONE',  ( 1.892079304682660900E-014, 0.0000000000000000000, -154.5000000000000000 ) ) ;
#130 = VECTOR ( 'NONE', #194, 1000.000000000000000 ) ;
#131 = ORIENTED_EDGE ( 'NONE', *, *, #171, .T. ) ;
#132 = EDGE_CURVE ( 'NONE', #153, #205, #36, .T. ) ;
#133 = CARTESIAN_POINT ( 'NONE',  ( 0.0000000000000000000, -3.000000000000000000, 154.5000000000000000 ) ) ;
#134 = CARTESIAN_POINT ( 'NONE',  ( 0.0000000000000000000, -3.000000000000000000, 0.0000000000000000000 ) ) ;
#135 = CARTESIAN_POINT ( 'NONE',  ( 0.0000000000000000000, -3.000000000000000000, 152.5000000000000000 ) ) ;
#136 = CIRCLE ( 'NONE', #71, 152.5000000000000000 ) ;
#137 =( NAMED_UNIT ( * ) SI_UNIT ( $, .STERADIAN. ) SOLID_ANGLE_UNIT ( ) );
#138 = LINE ( 'NONE', #155, #269 ) ;
#139 = ORIENTED_EDGE ( 'NONE', *, *, #116, .T. ) ;
#140 = DIRECTION ( 'NONE',  ( -1.451271927614583500E-016, 0.0000000000000000000, -1.000000000000000000 ) ) ;
#141 = CARTESIAN_POINT ( 'NONE',  ( 191.2500000000000300, 0.0000000000000000000, 191.2500000000000300 ) ) ;
#142 = EDGE_CURVE ( 'NONE', #65, #153, #323, .T. ) ;
#143 = DIRECTION ( 'NONE',  ( 0.0000000000000000000, 1.000000000000000000, 0.0000000000000000000 ) ) ;
#144 = LINE ( 'NONE', #203, #336 ) ;
#145 = ORIENTED_EDGE ( 'NONE', *, *, #315, .T. ) ;
#146 = CARTESIAN_POINT ( 'NONE',  ( -191.2500000000000300, -6.000000000000000000, -191.2499999999999700 ) ) ;
#147 = CARTESIAN_POINT ( 'NONE',  ( -191.2500000000000300, 0.0000000000000000000, -191.2499999999999700 ) ) ;
#148 = SURFACE_SIDE_STYLE ('',( #246 ) ) ;
#149 = FACE_OUTER_BOUND ( 'NONE', #41, .T. ) ;
#150 = ORIENTED_EDGE ( 'NONE', *, *, #338, .F. ) ;
#151 = ORIENTED_EDGE ( 'NONE', *, *, #166, .T. ) ;
#152 = CIRCLE ( 'NONE', #161, 154.5000000000000000 ) ;
#153 = VERTEX_POINT ( 'NONE', #162 ) ;
#154 = ORIENTED_EDGE ( 'NONE', *, *, #132, .F. ) ;
#155 = CARTESIAN_POINT ( 'NONE',  ( -191.2500000000000300, 0.0000000000000000000, -191.2499999999999700 ) ) ;
#156 = CARTESIAN_POINT ( 'NONE',  ( -191.2500000000000300, 0.0000000000000000000, -191.2499999999999700 ) ) ;
#157 = CYLINDRICAL_SURFACE ( 'NONE', #272, 154.5000000000000000 ) ;
#158 = VERTEX_POINT ( 'NONE', #349 ) ;
#159 = ADVANCED_FACE ( 'NONE', ( #248 ), #355, .T. ) ;
#160 = DIRECTION ( 'NONE',  ( 1.000000000000000000, 0.0000000000000000000, 0.0000000000000000000 ) ) ;
#161 = AXIS2_PLACEMENT_3D ( 'NONE', #172, #6, #175 ) ;
#162 = CARTESIAN_POINT ( 'NONE',  ( 1.867586368699713500E-014, -6.000000000000000000, -152.5000000000000000 ) ) ;
#163 = DIRECTION ( 'NONE',  ( 0.0000000000000000000, 1.000000000000000000, 0.0000000000000000000 ) ) ;
#164 = VERTEX_POINT ( 'NONE', #129 ) ;
#165 = CARTESIAN_POINT ( 'NONE',  ( 1.867586368699713500E-014, -3.000000000000000000, -152.5000000000000000 ) ) ;
#166 = EDGE_CURVE ( 'NONE', #282, #158, #93, .T. ) ;
#167 = DIRECTION ( 'NONE',  ( 0.0000000000000000000, 1.000000000000000000, 0.0000000000000000000 ) ) ;
#168 = CARTESIAN_POINT ( 'NONE',  ( 0.0000000000000000000, -3.000000000000000000, 0.0000000000000000000 ) ) ;
#169 = FACE_OUTER_BOUND ( 'NONE', #270, .T. ) ;
#170 = CARTESIAN_POINT ( 'NONE',  ( 0.0000000000000000000, 0.0000000000000000000, 0.0000000000000000000 ) ) ;
#171 = EDGE_CURVE ( 'NONE', #65, #4, #312, .T. ) ;
#172 = CARTESIAN_POINT ( 'NONE',  ( 0.0000000000000000000, 0.0000000000000000000, 0.0000000000000000000 ) ) ;
#173 = EDGE_LOOP ( 'NONE', ( #9, #79, #105, #200 ) ) ;
#174 = APPLICATION_CONTEXT ( 'automotive_design' ) ;
#175 = DIRECTION ( 'NONE',  ( 0.0000000000000000000, 0.0000000000000000000, 1.000000000000000000 ) ) ;
#176 = PRESENTATION_STYLE_ASSIGNMENT (( #330 ) ) ;
#177 = VECTOR ( 'NONE', #245, 1000.000000000000000 ) ;
#178 = EDGE_CURVE ( 'NONE', #264, #310, #26, .T. ) ;
#179 = AXIS2_PLACEMENT_3D ( 'NONE', #125, #292, #28 ) ;
#180 = ORIENTED_EDGE ( 'NONE', *, *, #308, .T. ) ;
#181 = AXIS2_PLACEMENT_3D ( 'NONE', #170, #274, #160 ) ;
#182 = CARTESIAN_POINT ( 'NONE',  ( 0.0000000000000000000, -6.000000000000000000, 0.0000000000000000000 ) ) ;
#183 = CARTESIAN_POINT ( 'NONE',  ( 0.0000000000000000000, -6.000000000000000000, 152.5000000000000000 ) ) ;
#184 = FACE_OUTER_BOUND ( 'NONE', #64, .T. ) ;
#185 = CARTESIAN_POINT ( 'NONE',  ( 0.0000000000000000000, -3.000000000000000000, 0.0000000000000000000 ) ) ;
#186 = CARTESIAN_POINT ( 'NONE',  ( 191.2499999999999700, -6.000000000000000000, -191.2499999999999700 ) ) ;
#187 = CARTESIAN_POINT ( 'NONE',  ( 191.2499999999999700, 0.0000000000000000000, -191.2499999999999700 ) ) ;
#188 = ADVANCED_FACE ( 'NONE', ( #169 ), #157, .F. ) ;
#189 = PRESENTATION_STYLE_ASSIGNMENT (( #241 ) ) ;
#190 = EDGE_CURVE ( 'NONE', #337, #72, #18, .T. ) ;
#191 = EDGE_LOOP ( 'NONE', ( #16, #48, #347, #88 ) ) ;
#192 = EDGE_CURVE ( 'NONE', #4, #205, #229, .T. ) ;
#193 = DIRECTION ( 'NONE',  ( 0.0000000000000000000, 1.000000000000000000, 0.0000000000000000000 ) ) ;
#194 = DIRECTION ( 'NONE',  ( -1.000000000000000000, -0.0000000000000000000, -0.0000000000000000000 ) ) ;
#195 = LINE ( 'NONE', #75, #259 ) ;
#196 = ORIENTED_EDGE ( 'NONE', *, *, #231, .T. ) ;
#197 = CARTESIAN_POINT ( 'NONE',  ( 0.0000000000000000000, -6.000000000000000000, 0.0000000000000000000 ) ) ;
#198 = ADVANCED_BREP_SHAPE_REPRESENTATION ( '7400549_KSTP1', ( #348, #181 ), #34 ) ;
#199 = DIRECTION ( 'NONE',  ( 0.0000000000000000000, 1.000000000000000000, 0.0000000000000000000 ) ) ;
#200 = ORIENTED_EDGE ( 'NONE', *, *, #171, .F. ) ;
#201 = AXIS2_PLACEMENT_3D ( 'NONE', #91, #211, #46 ) ;
#202 = PRODUCT_DEFINITION ( 'UNKNOWN', '', #219, #117 ) ;
#203 = CARTESIAN_POINT ( 'NONE',  ( 191.2500000000000300, -6.000000000000000000, 191.2500000000000300 ) ) ;
#204 = CIRCLE ( 'NONE', #10, 152.5000000000000000 ) ;
#205 = VERTEX_POINT ( 'NONE', #165 ) ;
#206 = VECTOR ( 'NONE', #332, 1000.000000000000000 ) ;
#207 = ORIENTED_EDGE ( 'NONE', *, *, #284, .T. ) ;
#208 = EDGE_CURVE ( 'NONE', #242, #126, #236, .T. ) ;
#209 = LINE ( 'NONE', #35, #63 ) ;
#210 = LINE ( 'NONE', #1, #123 ) ;
#211 = DIRECTION ( 'NONE',  ( -1.000000000000000000, 0.0000000000000000000, 1.451271927614583500E-016 ) ) ;
#212 = ORIENTED_EDGE ( 'NONE', *, *, #231, .F. ) ;
#213 = CARTESIAN_POINT ( 'NONE',  ( 0.0000000000000000000, 0.0000000000000000000, 0.0000000000000000000 ) ) ;
#214 = DIRECTION ( 'NONE',  ( -0.0000000000000000000, 1.000000000000000000, -0.0000000000000000000 ) ) ;
#215 = CYLINDRICAL_SURFACE ( 'NONE', #97, 152.5000000000000000 ) ;
#216 = VERTEX_POINT ( 'NONE', #186 ) ;
#217 = ADVANCED_FACE ( 'NONE', ( #78 ), #80, .T. ) ;
#218 = DIRECTION ( 'NONE',  ( -1.451271927614584000E-016, -0.0000000000000000000, -1.000000000000000000 ) ) ;
#219 = PRODUCT_DEFINITION_FORMATION_WITH_SPECIFIED_SOURCE ( 'ANY', '', #86, .NOT_KNOWN. ) ;
#220 = ORIENTED_EDGE ( 'NONE', *, *, #124, .F. ) ;
#221 = DIRECTION ( 'NONE',  ( 0.0000000000000000000, -0.0000000000000000000, 1.000000000000000000 ) ) ;
#222 = FACE_OUTER_BOUND ( 'NONE', #173, .T. ) ;
#223 = ORIENTED_EDGE ( 'NONE', *, *, #301, .T. ) ;
#224 = DIRECTION ( 'NONE',  ( 1.000000000000000000, 0.0000000000000000000, -0.0000000000000000000 ) ) ;
#225 = CARTESIAN_POINT ( 'NONE',  ( 1.892079304682660900E-014, -3.000000000000000000, -154.5000000000000000 ) ) ;
#226 = CARTESIAN_POINT ( 'NONE',  ( 0.0000000000000000000, -6.000000000000000000, 0.0000000000000000000 ) ) ;
#227 = CARTESIAN_POINT ( 'NONE',  ( 0.0000000000000000000, -3.000000000000000000, 0.0000000000000000000 ) ) ;
#228 = ORIENTED_EDGE ( 'NONE', *, *, #23, .F. ) ;
#229 = CIRCLE ( 'NONE', #287, 152.5000000000000000 ) ;
#230 = ORIENTED_EDGE ( 'NONE', *, *, #7, .T. ) ;
#231 = EDGE_CURVE ( 'NONE', #310, #158, #13, .T. ) ;
#232 = AXIS2_PLACEMENT_3D ( 'NONE', #266, #103, #140 ) ;
#233 = ORIENTED_EDGE ( 'NONE', *, *, #192, .T. ) ;
#234 = UNCERTAINTY_MEASURE_WITH_UNIT (LENGTH_MEASURE( 1.000000000000000100E-005 ), #253, 'distance_accuracy_value', 'NONE');
#235 = PRODUCT_RELATED_PRODUCT_CATEGORY ( 'part', '', ( #86 ) ) ;
#236 = CIRCLE ( 'NONE', #179, 154.5000000000000000 ) ;
#237 = ORIENTED_EDGE ( 'NONE', *, *, #51, .T. ) ;
#238 = DIRECTION ( 'NONE',  ( -1.000000000000000000, 0.0000000000000000000, -0.0000000000000000000 ) ) ;
#239 = ADVANCED_FACE ( 'NONE', ( #222 ), #215, .F. ) ;
#240 = SURFACE_SIDE_STYLE ('',( #12 ) ) ;
#241 = SURFACE_STYLE_USAGE ( .BOTH. , #240 ) ;
#242 = VERTEX_POINT ( 'NONE', #225 ) ;
#243 =( NAMED_UNIT ( * ) PLANE_ANGLE_UNIT ( ) SI_UNIT ( $, .RADIAN. ) );
#244 = DIRECTION ( 'NONE',  ( 0.0000000000000000000, 1.000000000000000000, 0.0000000000000000000 ) ) ;
#245 = DIRECTION ( 'NONE',  ( -0.0000000000000000000, 1.000000000000000000, -0.0000000000000000000 ) ) ;
#246 = SURFACE_STYLE_FILL_AREA ( #2 ) ;
#247 = FILL_AREA_STYLE_COLOUR ( '', #352 ) ;
#248 = FACE_OUTER_BOUND ( 'NONE', #109, .T. ) ;
#249 = ORIENTED_EDGE ( 'NONE', *, *, #178, .T. ) ;
#250 = FILL_AREA_STYLE ('',( #247 ) ) ;
#251 = ORIENTED_EDGE ( 'NONE', *, *, #192, .F. ) ;
#252 = PLANE ( 'NONE',  #81 ) ;
#253 =( LENGTH_UNIT ( ) NAMED_UNIT ( * ) SI_UNIT ( .MILLI., .METRE. ) );
#254 = VECTOR ( 'NONE', #273, 1000.000000000000000 ) ;
#255 = AXIS2_PLACEMENT_3D ( 'NONE', #134, #49, #92 ) ;
#256 = EDGE_LOOP ( 'NONE', ( #196, #207, #305, #57 ) ) ;
#257 = UNCERTAINTY_MEASURE_WITH_UNIT (LENGTH_MEASURE( 1.000000000000000100E-005 ), #67, 'distance_accuracy_value', 'NONE');
#258 = CARTESIAN_POINT ( 'NONE',  ( 0.0000000000000000000, -6.000000000000000000, 0.0000000000000000000 ) ) ;
#259 = VECTOR ( 'NONE', #346, 1000.000000000000000 ) ;
#260 = EDGE_LOOP ( 'NONE', ( #154, #114, #131, #233 ) ) ;
#261 = DIRECTION ( 'NONE',  ( -0.0000000000000000000, 1.000000000000000000, -0.0000000000000000000 ) ) ;
#262 = ADVANCED_FACE ( 'NONE', ( #283 ), #59, .F. ) ;
#263 = LINE ( 'NONE', #133, #327 ) ;
#264 = VERTEX_POINT ( 'NONE', #280 ) ;
#265 = AXIS2_PLACEMENT_3D ( 'NONE', #302, #199, #8 ) ;
#266 = CARTESIAN_POINT ( 'NONE',  ( 191.2499999999999700, -6.000000000000000000, -191.2499999999999700 ) ) ;
#267 = CARTESIAN_POINT ( 'NONE',  ( 0.0000000000000000000, -3.000000000000000000, 0.0000000000000000000 ) ) ;
#268 = DIRECTION ( 'NONE',  ( 0.0000000000000000000, 1.000000000000000000, 0.0000000000000000000 ) ) ;
#269 = VECTOR ( 'NONE', #321, 1000.000000000000000 ) ;
#270 = EDGE_LOOP ( 'NONE', ( #60, #33, #306, #223 ) ) ;
#271 = PLANE ( 'NONE',  #265 ) ;
#272 = AXIS2_PLACEMENT_3D ( 'NONE', #168, #214, #21 ) ;
#273 = DIRECTION ( 'NONE',  ( -1.451271927614584000E-016, -0.0000000000000000000, -1.000000000000000000 ) ) ;
#274 = DIRECTION ( 'NONE',  ( 0.0000000000000000000, 0.0000000000000000000, 1.000000000000000000 ) ) ;
#275 = CARTESIAN_POINT ( 'NONE',  ( -191.2499999999999700, -6.000000000000000000, 191.2500000000000300 ) ) ;
#276 = LINE ( 'NONE', #146, #206 ) ;
#277 = ORIENTED_EDGE ( 'NONE', *, *, #284, .F. ) ;
#278 =( LENGTH_UNIT ( ) NAMED_UNIT ( * ) SI_UNIT ( .MILLI., .METRE. ) );
#279 =( NAMED_UNIT ( * ) PLANE_ANGLE_UNIT ( ) SI_UNIT ( $, .RADIAN. ) );
#280 = CARTESIAN_POINT ( 'NONE',  ( -191.2500000000000300, -6.000000000000000000, -191.2499999999999700 ) ) ;
#281 = FACE_BOUND ( 'NONE', #69, .T. ) ;
#282 = VERTEX_POINT ( 'NONE', #275 ) ;
#283 = FACE_OUTER_BOUND ( 'NONE', #260, .T. ) ;
#284 = EDGE_CURVE ( 'NONE', #158, #337, #68, .T. ) ;
#285 = ORIENTED_EDGE ( 'NONE', *, *, #178, .F. ) ;
#286 = ORIENTED_EDGE ( 'NONE', *, *, #329, .T. ) ;
#287 = AXIS2_PLACEMENT_3D ( 'NONE', #267, #320, #102 ) ;
#288 = DIRECTION ( 'NONE',  ( -0.0000000000000000000, 1.000000000000000000, -0.0000000000000000000 ) ) ;
#289 = CARTESIAN_POINT ( 'NONE',  ( -191.2499999999999700, -6.000000000000000000, 191.2500000000000300 ) ) ;
#290 = VECTOR ( 'NONE', #74, 1000.000000000000000 ) ;
#291 = ORIENTED_EDGE ( 'NONE', *, *, #308, .F. ) ;
#292 = DIRECTION ( 'NONE',  ( 0.0000000000000000000, 1.000000000000000000, 0.0000000000000000000 ) ) ;
#293 = DIRECTION ( 'NONE',  ( 0.0000000000000000000, 0.0000000000000000000, 1.000000000000000000 ) ) ;
#294 = ORIENTED_EDGE ( 'NONE', *, *, #124, .T. ) ;
#295 = CARTESIAN_POINT ( 'NONE',  ( -191.2499999999999700, -6.000000000000000000, 191.2500000000000300 ) ) ;
#296 = PLANE ( 'NONE',  #58 ) ;
#297 = DIRECTION ( 'NONE',  ( 0.0000000000000000000, 1.000000000000000000, 0.0000000000000000000 ) ) ;
#298 = VECTOR ( 'NONE', #218, 1000.000000000000000 ) ;
#299 = ORIENTED_EDGE ( 'NONE', *, *, #116, .F. ) ;
#300 = DIRECTION ( 'NONE',  ( 0.0000000000000000000, 1.000000000000000000, 0.0000000000000000000 ) ) ;
#301 = EDGE_CURVE ( 'NONE', #19, #164, #152, .T. ) ;
#302 = CARTESIAN_POINT ( 'NONE',  ( -191.2499999999999700, -6.000000000000000000, 191.2500000000000300 ) ) ;
#303 = AXIS2_PLACEMENT_3D ( 'NONE', #39, #193, #221 ) ;
#304 = APPLICATION_PROTOCOL_DEFINITION ( 'draft international standard', 'automotive_design', 1998, #85 ) ;
#305 = ORIENTED_EDGE ( 'NONE', *, *, #190, .T. ) ;
#306 = ORIENTED_EDGE ( 'NONE', *, *, #335, .T. ) ;
#307 = CARTESIAN_POINT ( 'NONE',  ( -191.2500000000000300, -6.000000000000000000, -191.2499999999999700 ) ) ;
#308 = EDGE_CURVE ( 'NONE', #264, #282, #276, .T. ) ;
#309 = VECTOR ( 'NONE', #167, 1000.000000000000000 ) ;
#310 = VERTEX_POINT ( 'NONE', #147 ) ;
#311 = COLOUR_RGB ( '',1.000000000000000000, 1.000000000000000000, 1.000000000000000000 ) ;
#312 = LINE ( 'NONE', #183, #177 ) ;
#313 = DIRECTION ( 'NONE',  ( 0.0000000000000000000, -0.0000000000000000000, 1.000000000000000000 ) ) ;
#314 = DIRECTION ( 'NONE',  ( -0.0000000000000000000, 1.000000000000000000, -0.0000000000000000000 ) ) ;
#315 = EDGE_CURVE ( 'NONE', #94, #337, #144, .T. ) ;
#316 = ADVANCED_FACE ( 'NONE', ( #50 ), #119, .F. ) ;
#317 = DIRECTION ( 'NONE',  ( -0.0000000000000000000, 1.000000000000000000, -0.0000000000000000000 ) ) ;
#318 = ORIENTED_EDGE ( 'NONE', *, *, #329, .F. ) ;
#319 = DIRECTION ( 'NONE',  ( 0.0000000000000000000, 0.0000000000000000000, 1.000000000000000000 ) ) ;
#320 = DIRECTION ( 'NONE',  ( 0.0000000000000000000, 1.000000000000000000, 0.0000000000000000000 ) ) ;
#321 = DIRECTION ( 'NONE',  ( -1.000000000000000000, -0.0000000000000000000, -0.0000000000000000000 ) ) ;
#322 = CARTESIAN_POINT ( 'NONE',  ( 191.2499999999999700, -6.000000000000000000, -191.2499999999999700 ) ) ;
#323 = CIRCLE ( 'NONE', #76, 152.5000000000000000 ) ;
#324 = EDGE_LOOP ( 'NONE', ( #99, #237 ) ) ;
#325 = AXIS2_PLACEMENT_3D ( 'NONE', #213, #300, #127 ) ;
#326 = DIRECTION ( 'NONE',  ( 0.0000000000000000000, 0.0000000000000000000, 1.000000000000000000 ) ) ;
#327 = VECTOR ( 'NONE', #66, 1000.000000000000000 ) ;
#328 = ORIENTED_EDGE ( 'NONE', *, *, #208, .T. ) ;
#329 = EDGE_CURVE ( 'NONE', #216, #264, #3, .T. ) ;
#330 = SURFACE_STYLE_USAGE ( .BOTH. , #148 ) ;
#331 = UNCERTAINTY_MEASURE_WITH_UNIT (LENGTH_MEASURE( 1.000000000000000100E-005 ), #278, 'distance_accuracy_value', 'NONE');
#332 = DIRECTION ( 'NONE',  ( 1.451271927614584000E-016, 0.0000000000000000000, 1.000000000000000000 ) ) ;
#333 = VECTOR ( 'NONE', #106, 1000.000000000000000 ) ;
#334 = ORIENTED_EDGE ( 'NONE', *, *, #342, .T. ) ;
#335 = EDGE_CURVE ( 'NONE', #126, #19, #263, .T. ) ;
#336 = VECTOR ( 'NONE', #244, 1000.000000000000000 ) ;
#337 = VERTEX_POINT ( 'NONE', #141 ) ;
#338 = EDGE_CURVE ( 'NONE', #205, #4, #136, .T. ) ;
#339 = DIRECTION ( 'NONE',  ( 0.0000000000000000000, 0.0000000000000000000, 1.000000000000000000 ) ) ;
#340 = FACE_BOUND ( 'NONE', #324, .T. ) ;
#341 = CLOSED_SHELL ( 'NONE', ( #239, #316, #159, #217, #96, #344, #70, #20, #188, #128, #262 ) ) ;
#342 = EDGE_CURVE ( 'NONE', #216, #72, #209, .T. ) ;
#343 = DIRECTION ( 'NONE',  ( 0.0000000000000000000, 0.0000000000000000000, -1.000000000000000000 ) ) ;
#344 = ADVANCED_FACE ( 'NONE', ( #149 ), #252, .T. ) ;
#345 = VECTOR ( 'NONE', #32, 1000.000000000000000 ) ;
#346 = DIRECTION ( 'NONE',  ( 1.000000000000000000, 0.0000000000000000000, 0.0000000000000000000 ) ) ;
#347 = ORIENTED_EDGE ( 'NONE', *, *, #23, .T. ) ;
#348 = MANIFOLD_SOLID_BREP ( 'Schnitt-Linear austragen3', #341 ) ;
#349 = CARTESIAN_POINT ( 'NONE',  ( -191.2499999999999700, 0.0000000000000000000, 191.2500000000000300 ) ) ;
#350 = MECHANICAL_DESIGN_GEOMETRIC_PRESENTATION_REPRESENTATION (  '', ( #118 ), #15 ) ;
#351 = APPLICATION_PROTOCOL_DEFINITION ( 'draft international standard', 'automotive_design', 1998, #174 ) ;
#352 = COLOUR_RGB ( '',1.000000000000000000, 1.000000000000000000, 1.000000000000000000 ) ;
#353 = CIRCLE ( 'NONE', #255, 154.5000000000000000 ) ;
#354 = EDGE_LOOP ( 'NONE', ( #291, #318, #220, #299 ) ) ;
#355 = PLANE ( 'NONE',  #201 ) ;
#356 = DIRECTION ( 'NONE',  ( 0.0000000000000000000, 1.000000000000000000, 0.0000000000000000000 ) ) ;
ENDSEC;
END-ISO-10303-21;
